Oops, an error
Loading. Please wait.

Im A Taxidermist Ill Stuff Anything Tab

456 views 3 this week
no commentswrite comment
1 2 3 4 5
2 more votes to show rating
add to favorites
launch autoscroll
font size
0
reset
how to read this tab
guitar tuner
Autoscroll
slow
fast
+/-
esc
set tempo
stop
Help us to improve Ultimate-Guitar.com Take our survey!
×
Difficulty
novice
Main Riff
e|-------------------------------------------------|
B|-------------------------------------------------|
G|----77-5-1010-5-77-5-1012-5-77-5-1010------------|(x2)
D|----77-5-1010-5-77-5-1012-5-77-5-1010-7\6\5\4/5/6|
A|----55-3-8-8--3-55-3-8-10-3-55-3-8-8--7\6\5\4/5/6|
E|--------------------------------------5\4\3\2/3/4|

e|------------------------------------------------|
B|------------------------------------------------|
G|---99-7-1212-7-99-7-1214-7-99-7-1212------------|(x2)
D|---99-7-1212-7-99-7-1214-7-99-7-1212-9\8\7\6/7/8|
A|---77-5-1010-5-77-5-1012-5-77-5-1010-9\8\7\6/7/8|
E|-------------------------------------7\6\5\4/5/6|

e|--------------------------------------------------------------------------|
B|--------------------------------------------------------------------------|
G|--------------------------------------------------------------------------|
D|---77-x------777---------------------------------------------------7------|
A|---77-x-(x4)-777----(x4)-------------------------------------------7-(x16)|
E|---55-x------555/11(make some feedback here and chug randomly)-----5------|

*Repeat 1st part of main riff

e|-----------------------------------------------|
B|-----------------------------------------------|
G|-----------------------------------------------|
D|---77-------------------------------7--------77|
A|---77---(x4)------------------------7---(x3)-77|
E|---55/11----------------------------5/11-----55|

end on

e|--------|
B|--------|
G|--------|
D|---8----|
A|---8----|
E|---6----|
Suggest correction
Give kudos to tab author, rate the tab!
1 2 3 4 5
comments
print report bad tab
guest
You may want to rate the tab now too:
select rating
Wanna post a correction for this tab? Suggest correction