Oops, an error
Loading. Please wait.

Pretty Little Death Song bass

43 views 1 this week
no commentswrite comment
1 2 3 4 5
3 more votes to show rating
add to favorites
×
Save as Personal and add changes to this tab that will be seen only by you. Learn more ›
×
You can save this tab as Personal to edit and correct it or add notes. All changes will be seen only by you. Learn more »
launch autoscroll
font size
0
reset
guitar tuner
edit
Autoscroll
slow
fast
+/-
esc
set tempo
stop
Intro
G|----------------------------------|----------------------------------|
D|----------------------------------|----------------------------------|
A|----------------------------------|----------------------------------|
E|-5-5-5-5-5-5-5-5--5-5-5-5-5-5-5-5-|-5-5-5-5-5-5-5-5--5-5-5-5-5-5-5-5-|

G|-----------------|----------------|-----------------|---------------------|
D|-----------------|----------------|-----------------|---------------------|
A|-----6-6--5-5--3-|----6-6--5-5--3-|-----6-6--5-5--3-|-5--3--5--3--5--3--5-|
E|-5-5-------------|-5-5------------|-5-5-------------|---------------------|

G|-----------------|----------------|-----------------|---------------------|
D|-----------------|----------------|-----------------|---------------------|
A|-----6-6--5-5--3-|----6-6--5-5--3-|-----6-6--5-5--3-|-5--3--5--3--5--3--5-|
E|-5-5-------------|-5-5------------|-5-5-------------|---------------------|


Verse ("I Just Penned Another Pretty Little Death Song...")
G|----------------------------------|----------------------------------|
D|----------------------------------|----------------------------------|
A|----------------------------------|----------------------------------|
E|-5-5-5-5-5-5-5-5--5-5-5-5-5-5-5-5-|-5-5-5-5-5-5-5-5--5-5-5-5-5-5-5-5-|

G|----------------------------------|----------------------------------|
D|----------------------------------|----------------------------------|
A|----------------------------------|--------------------------5---3---|
E|-5-5-5-5-5-5-5-5--5-5-5-5-5-5-5-5-|-5-5-5-5-5-5-5-5--5-5-5-5---------|

G|-----------------|----------------|-----------------|---------------------|
D|-----------------|----------------|-----------------|---------------------|
A|-----6-6--5-5--3-|----6-6--5-5--3-|-----6-6--5-5--3-|-5--3--5--3--5--3--5-|
E|-5-5-------------|-5-5------------|-5-5-------------|---------------------|

G|----------------------------------|----------------------------------|
D|----------------------------------|----------------------------------|
A|----------------------------------|----------------------------------|
E|-5-5-5-5-5-5-5-5--5-5-5-5-5-5-5-5-|-5-5-5-5-5-5-5-5--5-5-5-5-5-5-5-5-|


Chorus ("But I Like My Pretty Little Death Songs...")
G|----------------------------------|----------------------------------|----------------------------------|
D|----------------------------------|----------------------------------|----------------------------------|
A|-3-3-3-3-3-3-3-3------------------|----------------------------------|----------------------------------|
E|------------------3-3-3-3-3-3-3-3-|-5-5-5-5-5-5-5-5--5-5-5-5-5-5-5-5-|-5-5-5-5-5-5-5-5--5-5-5-5-5-5-5-5-|

G|----------------------------------|
D|----------------------------------|
A|-3-3-3-3-3-3-3-3------------------|
E|------------------3-3-3-3-3-3-3-3-|

G|-----------------|----------------|-----------------|---------------------|
D|-----------------|----------------|-----------------|---------------------|
A|-----6-6--5-5--3-|----6-6--5-5--3-|-----6-6--5-5--3-|-5--3--5--3--5--3--5-|
E|-5-5-------------|-5-5------------|-5-5-------------|---------------------|

G|-----------------|----------------|-----------------|---------------------|
D|-----------------|----------------|-----------------|---------------------|
A|-----6-6--5-5--3-|----6-6--5-5--3-|-----6-6--5-5--3-|-5--3--5--3--5--3--5-|
E|-5-5-------------|-5-5------------|-5-5-------------|---------------------|


Verse ("I Won't Give Up My Pretty Little Death Songs...")
G|----------------------------------|----------------------------------|
D|----------------------------------|----------------------------------|
A|----------------------------------|----------------------------------|
E|-5-5-5-5-5-5-5-5--5-5-5-5-5-5-5-5-|-5-5-5-5-5-5-5-5--5-5-5-5-5-5-5-5-|

G|----------------------------------|----------------------------------|
D|----------------------------------|----------------------------------|
A|----------------------------------|--------------------------5---3---|
E|-5-5-5-5-5-5-5-5--5-5-5-5-5-5-5-5-|-5-5-5-5-5-5-5-5--5-5-5-5---------|

G|-----------------|----------------|-----------------|---------------------|
D|-----------------|----------------|-----------------|---------------------|
A|-----6-6--5-5--3-|----6-6--5-5--3-|-----6-6--5-5--3-|-5--3--5--3--5--3--5-|
E|-5-5-------------|-5-5------------|-5-5-------------|---------------------|

G|----------------------------------|----------------------------------|
D|----------------------------------|----------------------------------|
A|----------------------------------|----------------------------------|
E|-5-5-5-5-5-5-5-5--5-5-5-5-5-5-5-5-|-5-5-5-5-5-5-5-5--5-5-5-5-5-5-5-5-|


Chorus ("But I Like My Pretty Little Death Songs...")
G|----------------------------------|----------------------------------|----------------------------------|
D|----------------------------------|----------------------------------|----------------------------------|
A|-3-3-3-3-3-3-3-3------------------|----------------------------------|----------------------------------|
E|------------------3-3-3-3-3-3-3-3-|-5-5-5-5-5-5-5-5--5-5-5-5-5-5-5-5-|-5-5-5-5-5-5-5-5--5-5-5-5-5-5-5-5-|

G|----------------------------------|---------------------------|-----------------------------------|
D|----------------------------------|---------------------------|-----------------------------------|
A|-3-3-3-3-3-3-3-3------------------|----------5-5-5-5--3-3-3-3-|-----------------------------------|
E|------------------3-3-3-3-3-3-3-3-|-5-5-5-5-------------------|--5-5-5-5-5-5-5-5--5-5-5-5-5-5-5-5-|


Solo
G|------------------------------------|----------------------------------|
D|------------------------------------|----------------------------------|
A|-3-3-3-3-3-3-3-3-3--3-3-3-3-3-3-3-3-|-0-0-0-0-0-0-0-0--0-0-0-0-0-0-0-0-|
E|------------------------------------|----------------------------------|

Final Chorus                             ("If You Wanna Get There, You Never Sleep...")
G|----------------------------------|--------------------------|------------------|------------------|
D|----------------------------------|--------------------------|------------------|------------------|
A|-3-3-3-3-3-3-3-3------------------|---------5-5-5-5--3-3-3-3-|-5-5-5-5--3-3-3-3-|-5-5-5-5--3-3-3-3-|
E|------------------3-3-3-3-3-3-3-3-|-5-5-5-5------------------|------------------|------------------|

 
Outro                                                                                                x6
G|----------------|----------------|----------------|----------------|----------------|----------------|
D|-----7-7--8-8-7-|-----7-7--8-8-7-|-----7-7--8-8-7-|-----7-7--8-8-7-|-----7-7--8-8-7-|-----7-7--8-8-7-|
A|-0-0------------|-0-0------------|-0-0------------|-0-0------------|-0-0------------|-0-0------------|
E|----------------|----------------|----------------|----------------|----------------|----------------|

G|----------------|----------------|
D|-----7-7--8-8-7-|----------------|
A|-0-0------------|-0-0------------|
E|----------------|----------------|


            
            
Suggest correction
Creating personal tab
Creating personal tab
You can edit any tab online and save it as your Personal.

You can edit, replace or remove any tab part or add personal notes – all changes will be seen only by you.

Personal tabs can be accessed anytime from any device, even offline.
Learn more »
Give kudos to tab author, rate the tab!
1 2 3 4 5
comments
print report bad tab
guest
You may want to rate the tab now too:
select rating
Wanna post a correction for this tab? Suggest correction