Oops, an error
Loading. Please wait.

Son Of A Bitch To The Core Bass Tab

4 views 1 this week
no commentswrite comment
1 2 3 4 5
3 more votes to show rating
add to favorites
launch autoscroll
font size
0
reset
guitar tuner
Autoscroll
slow
fast
+/-
esc
set tempo
stop
Help us to improve Ultimate-Guitar.com Take our survey!
×
Author
Difficulty
Verse ("What Do I Care If Life Ain't Fair...")          
G|-------------------------------------|-------------------------------------|
D|-------------------------------------|-------------------------------------|
A|-5-5-5-5--3-3-3-3-----------5-5-5-5--|-5-5-5-5--3-3-3-3-----------5-5-5-5--|
E|-------------------3-3-3-3-----------|-------------------3-3-3-3-----------|

("We Go To Church On Something And First...")          
G|-------------------------------------|-------------------------------------|
D|-------------------------------------|-------------------------------------|
A|-5-5-5-5--3-3-3-3-----------5-5-5-5--|-5-5-5-5--3-3-3-3-----------5-5-5-5--|
E|-------------------3-3-3-3-----------|-------------------3-3-3-3-----------|


Chorus ("Son Of A Bitch To The Core...")  
G|-------------------------------------|-------------------------------------|
D|-------------------------------------|-------------------------------------|
A|-5-5-5-5--3-3-3-3-----------5-5-5-5--|-5-5-5-5--3-3-3-3-----------5-5-5-5--|
E|-------------------3-3-3-3-----------|-------------------3-3-3-3-----------|


Verse ("I Got A Girl Named Elinor Pearl...")                            
G|-------------------------------------|-------------------------------------|
D|-------------------------------------|-------------------------------------|
A|-5-5-5-5--3-3-3-3-----------5-5-5-5--|-5-5-5-5--3-3-3-3-----------5-5-5-5--|
E|-------------------3-3-3-3-----------|-------------------3-3-3-3-----------|

("So Get Off My Back Ya Business Suit...")
G|-----------------------------------------------------------------|
D|-----------------------------------------------------------------|
A|-5---------------3-------------------------------0---------------|
E|---------------------------------3-------------------------------|


Chorus ("Son Of A Bitch To The Core...")  
G|-------------------------------------|-------------------------------------|
D|-------------------------------------|-------------------------------------|
A|-5-5-5-5--3-3-3-3-----------5-5-5-5--|-5-5-5-5--3-3-3-3-----------5-5-5-5--|
E|-------------------3-3-3-3-----------|-------------------3-3-3-3-----------|


Harmonica Solo                     
G|-------------------------------------|-------------------------------------|
D|-------------------------------------|-------------------------------------|
A|-5-5-5-5--3-3-3-3-----------5-5-5-5--|-5-5-5-5--3-3-3-3-----------5-5-5-5--|
E|-------------------3-3-3-3-----------|-------------------3-3-3-3-----------|

G|-------------------------------------|-------------------------------------|
D|-------------------------------------|-------------------------------------|
A|-5-5-5-5--3-3-3-3-----------5-5-5-5--|-5-5-5-5--3-3-3-3-----------5-5-5-5--|
E|-------------------3-3-3-3-----------|-------------------3-3-3-3-----------|


Verse ("What Do I Care If Life Ain't Fair...")          
G|-------------------------------------|-------------------------------------|
D|-------------------------------------|-------------------------------------|
A|-5-5-5-5--3-3-3-3-----------5-5-5-5--|-5-5-5-5--3-3-3-3-----------5-5-5-5--|
E|-------------------3-3-3-3-----------|-------------------3-3-3-3-----------|


Chorus ("Son Of A Bitch To The Core...")  
G|-------------------------------------|-------------------------------------|
D|-------------------------------------|-------------------------------------|
A|-5-5-5-5--3-3-3-3-----------5-5-5-5--|-5-5-5-5--3-3-3-3-----------5-5-5-5--|
E|-------------------3-3-3-3-----------|-------------------3-3-3-3-----------|

("Son Of A Bitch To The Core...")  
G|-------------------------------------|-------------------------------------|
D|-------------------------------------|-------------------------------------|
A|-5-5-5-5--3-3-3-3-----------5-5-5-5--|-5-5-5-5--3-3-3-3-----------5-5-5-5--|
E|-------------------3-3-3-3-----------|-------------------3-3-3-3-----------|


This song appeared on the "Tribute To Hard Core Logo" album of course Hugh Dillon stared in the Hard Core Logo
movie. All the lyrics were written by Michael Turner (the author of Hard Core Logo) and the Headstones just
wrote music that would fit it. Super simple song, lots a fun to play. 
Suggest correction
Give kudos to tab author, rate the tab!
1 2 3 4 5
comments
print report bad tab
guest
You may want to rate the tab now too:
select rating
Wanna post a correction for this tab? Suggest correction