Oops, an error
Loading. Please wait.

Tweeter And The Monkeyman Tab

version 3
version 3

Whole song

8,780 views 1 this week
4 commentsread comments
1 2 3 4 5
1 last vote to show rating
add to favorites
×
Save as Personal and add changes to this tab that will be seen only by you. Learn more ›
×
You can save this tab as Personal to edit and correct it or add notes. All changes will be seen only by you. Learn more »
save as personal
new!
launch autoscroll
font size
0
reset
how to read this tab
guitar tuner
Autoscroll
slow
fast
+/-
esc
set tempo
stop
transcribed by: Gerald Kisoun
here's the basics:
Intro,verse,chorus: chords
|--------|--2----|-------|--------|
|--0-----|--3----|--2----|---0----|
|--1-----|--2----|--2----|---1----|
|--2-----|--0----|--2----|---2----|
|--2-----|-------|--0----|---2----|
|--0-----|-------|-------|---0----|

Pre verse: palm muted
|--------|-------|-------|--------|
|--------|--3----|-------|--------|
|--------|--2----|-------|---4----|
|--------|--0----|--2----|---2----|
|--2-----|-------|--0----|--------|
|--0-----|-------|-------|--------|

part after chorus: guitar 1
|---------------------------------|--0-----|
|---------------------------------|--3---0-|
|---------------------------------|--0---1-|
|------------------5--------------|--0---2-|
|--------5----7--------7---5---7--|--2---2-|
|---/7----------------------------|--3---0-|

part after chorus: guitar 2
|---------------------------------|--0-----|
|---------------------------------|--3---0-|
|----------------12---------------|--0---1-|
|--------12--14------14--12--14---|--0---2-|
|---/12---------------------------|--2---2-|
|---------------------------------|--3---0-|
Suggest correction
Give kudos to tab author, rate the tab!
1 2 3 4 5
comments
print report bad tab
4 comments total. Showing first comments.
0 reply
copperhead666 365 Dec 24, 2006 10:18 AM

This is the best song EVER!!!!

0 reply
thatsme1155 61 May 07, 2009 04:21 PM

the part after chorus: guitar 2 should be
|---------------------------------|--0-----|
|---------------------------------|--3---0-|
|----------------12---------------|--0---1-|
|--------12--14------14--12--14---|--0---2-|
|----14---------------------------|--2---2-|
|---------------------------------|--3---0-|

0 reply
sopazs 30 Dec 10, 2010 01:26 PM

I hear it like

|---------------------------------|----------|
|---------------------------------|----------|
|----------------12---------------|-2-2--0---|
|--------12--14------14--12--14---|-2-2--0---|
|----14---------------------------|-0-0--2---|
|---------------------------------|------3---|

guest
Wanna post a correction for this tab? Suggest correction