Oops, an error
Loading. Please wait.

Alone Tab

version 1
version 1

Acoustic

Whole song

Interactive

by Heart
27,951 views 24 this week
1 commentread comment
1 2 3 4 5
x 3
add to favorites
×
Save as Personal and add changes to this tab that will be seen only by you. Learn more ›
×
You can save this tab as Personal to edit and correct it or add notes. All changes will be seen only by you. Learn more »
save as personal
new!
launch autoscroll
font size
0
reset
how to read this tab
guitar tuner
backing track
0:00
0:00
Autoscroll
slow
fast
+/-
esc
set tempo
stop
Author
Tuning
Capo
Unregistered
E A D G B E
1st fret
Intro:
   Am         F         G
e|-------------------------------3---------------------------------|
B|-1-----1----1---1h3---0-----0--0---------------------------------|
G|-------2------2-----------0----0--2-0----------------------------|
D|----2----2--3---3-------0------0------3--------------------------|
A|-0-----------------------------2---------------------------------|
E|----------------------3--------3---------------------------------|

   Am         F               G        (E F G )
e|----------------------------3---3--------------------------------|
B|-----1-----------------------------------------------------------|
G|---2---2p0--------0h2-------------0---1-2-4-\--------------------|
D|-2----------3---3-----3-------0----------------------------------|
A|-0------------3---------3-------2-----2-3-5-\--------------------|
E|------------1---------------3------------------------------------|
                                        . . (staccato)
Verse 1: repeat Intro x2

  Bridge 1:
    F         C/E         F        C/E
e|-(1)-------(0)---------(1)----------------------------------------|
B|------1-----------1---------1----------1--------------------------|
G|-------------------------------------0----------------------------|
D|----3---3-------2---2-----3---3----2------------------------------|
A|------------------------------------------------------------------|
E|--1---------0-----------1--------0--------------------------------|

    F         C/E      F          G      C/G
e|-(1)-------(0)------------------3--3---0-0-0-0-0-0-0-0-------------|
B|------1---------1--------1------0--0---1-1-1-1-1-1-1-1-------------|
G|---------------------------2----0--0---0-0-0-0-0-0-0-0-------------|
D|----3---3-----2---2----3-----3--0--0---2-2-2-2-2-2-2-2-------------|
A|--------------------------------2--0---3-3-3-3-3-3-3-3-------------|
E|--1---------0--------1----------3--3---3-3-3-3-3-3-3-3-------------|

  Chorus 1:
   Dm         Bbsus2    F           'Open' C
e|-1p0--------1-1-1-1---1------------0--0----------------------------|
B|-3---3------1-1-1-1---1------------5--5----------------------------|
G|-2-----2----3-3-3-3---2------------0--0----------------------------|  x3
D|-0-------0--3-3-3-3---3------------5--5----------------------------|
A|------------1-1-1-1---3--0h3--1s3--3--3----------------------------|
E|------------1-1-1-1---1--------------------------------------------|

   F       Bbsus2     'Open' C
e|-1-1-1---1-1-1---0-s-0-0--------------------------------------------|
B|-1-1-1---1-1-1---3-s-5-5--------------------------------------------|
G|-2-2-2---3-3-3---0-s-0-0--------------------------------------------|  x2 *
D|-3-3-3---3-3-3---3-s-5-5--------------------------------------------|
A|-3-3-3---1-1-1---1-s-3-3--------------------------------------------|
E|---------1-1-1------------------------------------------------------|
                 ^quickly slide this up to the next chord

  *On the second time add this:
e|-0-0-0-0-0-0-0-0----------------------------------------------------|
B|-5-5-5-5-5-5-5-5----------------------------------------------------|
G|-0-0-0-0-0-0-0-0----------------------------------------------------|
D|-5-5-5-5-5-5-5-5----------------------------------------------------|
A|-3-3-3-3-3-3-3-2----------------------------------------------------|
E|--------------------------------------------------------------------|
               ^pay attention to this one (it's different)

Verse 2: Can be played the same as verse 1, but you can also add your own picking
variations if you want.
Bridge 2: Can be played the same as bridge 1, but you can also vary it.

  Before the next chorus strum these chords straight:
   Dm         Bbsus2    F         C/G
e|-1-1-1-1----1-1-1-1---1-1-1-1---0-0-0-0------------------------------|
B|-3-3-3-3----1-1-1-1---1-1-1-1---1-1-1-1------------------------------|
G|-2-2-2-2----3-3-3-3---2-2-2-2---0-0-0-0------------------------------|  x2
D|-0-0-0-0----3-3-3-3---3-3-3-3---2-2-2-2------------------------------|
A|------------1-1-1-1---3-3-3-3---3-3-3-3------------------------------|
E|------------1-1-1-1---1-1-1-1---3-3-3-3------------------------------|

  Chorus 2: Repeat the above chords x3 (Dm Bbsus2 F C/G)
  then do...
   F         Bbsus2   'Open' C
e|-1-1-1-1---1-1-1-1---0-0-0-0-----------------------------------------|
B|-1-1-1-1---1-1-1-1---5-5-5-5-----------------------------------------|
G|-2-2-2-2---3-3-3-3---0-0-0-0-----------------------------------------|  x4 *
D|-3-3-3-3---3-3-3-3---5-5-5-5-----------------------------------------|
A|-3-3-3-3---1-1-1-1---3-3-3-3-----------------------------------------|
E|-----------1-1-1-1---------------------------------------------------|

  *4th time add this:
e|-0-0-0-0-0-0-0-0-----------------------------------------------------|
B|-5-5-5-5-5-5-5-5-----------------------------------------------------|
G|-0-0-0-0-0-0-0-0-----------------------------------------------------|
D|-5-5-5-5-5-5-5-5-----------------------------------------------------|
A|-3-3-3-3-3-3-3-2-----------------------------------------------------|
E|---------------------------------------------------------------------|

  Outro:
   Am        F         G                    Am/E
e|-0----------------------------3-------------------0-------0-0--------|
B|-1----1----1---1h3---0-----0--0-------------------1-0h1---1-1--------|
G|-2-----------2-----------0----0--2--0-----------2-2-------2-2--------|
D|-2--2---2--3---3-------0------0--------3------2---2-----2-2-2--------|
A|-0----------------------------2--------3----0-----0-------0-0--------|
E|---------------------3--------3-----------0-------0-------0-0--------|
Suggest correction
Give kudos to tab author, rate the tab!
1 2 3 4 5
comments
print report bad tab
1 comment total.
-1 reply
dandanmat 10 Jan 16, 2008 04:32 AM

Intro:

Am          F         G
-------------------------------3---------------------------------
-1-----1----1---1h3---0-----0--0---------------------------------
-------2------2-----------0----0--2-0----------------------------
----2----2--3---3-------0------0------3--------------------------
-0-----------------------------2---------------------------------
----------------------3--------3---------------------------------

Am F G E
-----------------------------3------------------------------------
-----1------1---1--------0----------------------------------------
---2---2p0--------0h2----------0-----1\2\4/-----------------------
-2----------3-3-------3----0--------------------------------------
-0---------------------------2-------2\3\5/-----------------------
-------------------------3----------------------------------------


By Danilo Matsuoka

guest
Wanna post a correction for this tab? Suggest correction