Oops, an error
Loading. Please wait.

Alone Tab

version 1
version 1

Solo

Whole song

Interactive

44,615 views 30 this week
no commentswrite comment
1 2 3 4 5
x 7
add to favorites
launch autoscroll
font size
0
reset
how to read this tab
guitar tuner
Autoscroll
slow
fast
+/-
esc
set tempo
stop
Help us to improve Ultimate-Guitar.com Take our survey!
×
Song: ALONE
Band: Heart

Here's my take on the solo of this great rock ballad from the 80's. Listen to song to get the
timing correct. Enjoy! Any corrections/additions etc welcome on fenechj@maltanet.net



[Solo]

e|---------------------13-14--------------------------------------------------|
B|---14b-14b-14-11-14b--------14-12------------------------11-11hb------------|
G|----------------------------------15-13--11-10-8----8-10--------------------|
D|----------------------------------------------------------------------------|
A|----------------------------------------------------------------------------|
E|----------------------------------------------------------------------------|

e|-----------------11-11-9----------------------------------------------------|
B|--14-16-14-12-11---------12--------14-12-11h12h14p12--9-------11-14-11------|
G|-----------------------------8-11--------------------------------------11---|
D|-----------------------------------------------------------9----------------|
A|----------------------------------------------------------------------------|
E|----------------------------------------------------------------------------|

e|------------------------------------13h14h16--14b-14b-14b-13b-19b-19b-------|
B|--------14-14~~--16-14-12h14h16p14------------------------------------------|
G|----x-----------------------------------------------------------------------|
D|--x-------------------------------------------------------------------------|
A|-x--------------------------------------------------------------------------|
E|----------------------------------------------------------------------------|



************************************

| b  Bend
| h  Hammer-on
| p  Pull-off
| ~  Vibrato
| x  Dead note

************************************
Suggest correction
comments
print report bad tab
guest
You may want to rate the tab now too:
select rating
Wanna post a correction for this tab? Suggest correction