Oops, an error
Loading. Please wait.

Alone Tab

version 1
version 1

Whole song

Interactive

22,172 views 6 this week
no commentswrite comment
1 2 3 4 5
please rate
add to favorites
launch autoscroll
font size
0
reset
how to read this tab
guitar tuner
Autoscroll
slow
fast
+/-
esc
set tempo
stop
Help us to improve Ultimate-Guitar.com Take our survey!
×
Difficulty
intermediate
#----------------------------------PLEASE NOTE----------------------------#
 This file is the author's own work and represents their interpretation of the
  Song. You may only use this file for private study, scholarship, or research.
#-------------------------------------------------------------------------#

Heart -- 'ALONE'
Transcription by Olivier Vieser : vieser@bluewin.ch / www.picante-production.cabanova.de
---------------------------------------------------------------------------
                             ALONE - Heart
---------------------------------------------------------------------------
Tabbed by: Olivier Vieser
Email: vieser@bluewin.ch

Tuning: Am   (Original in Bbm)


INTRO/VERS:

e|----7----------7------------7-----------7----10-------------------------|
B|---10---------10-----------10----------10----10---------12----------12--|
G|----9----------9-----------12----------12----12---------12----------12--|
D|--------------------------------------------------------12----------12--|
A|---------0------------0-----7----7----------------------------10--------|
E|------------------------------------------------------------------------|

e|----7-----------------------------------------7----------7----10--------|
B|----8----10----8----8------------10--10------10---------10----10----12--|
G|----7-----7----7---10---------9---9---9------12---------12----12----12--|
D|--------------------------------------------------------------------12--|
A|----8-------------------------0-------0-------7----7--------------------|
E|------------------------------------------------------------------------|

e|---------------4----5----7----0-----------------------------------------|
B|---------12-------------------------------------------------------------|
G|---------12-------------------------------------------------------------|
D|---------12-------------------------------------------------------------|
A|---10-------------------------------------------------------------------|
E|------------------------------------------------------------------------|


PRE-CHORUS:


e|----8----------8---------8--------8----------8-----------8--------------|
B|---10---------10---------8--------8---------10----------10--------------|
G|---10---------10---------9--------9---------10----------10--------------|
D|------------------------------------------------------------------------|
A|---------8----------8---------7--------7--------------------------------|
E|---------------------------------------------------10---------10--------|

e|----8----------8--------------------------------------------------------|
B|----8----------8--------------------------------------------------------|
G|----9----------9--------------------------------------------------------|
D|------------------------------------------------------------------------|
A|------------------------------------------------------------------------|
E|---------8----------8---------------------------------------------------|

e|------------------------------------------------------------------------|
B|---13---------12--------------------------------------------------------|
G|---12---------12--------------------------------------------------------|
D|---12---------12--------------------------------------------------------|
A|---------10---------10--------------------------------------------------|
E|------------------------------------------------------------------------|

e|------------------------------------------------------------------------|
B|----8-------------------------------------------------------------------|
G|----9-------------------------------------------------------------------|
D|---10-------------------------------------------------------------------|
A|------------------------------------------------------------------------|
E|----8-------------------------------------------------------------------|


CHORUS:


e|----------------6-------------------------------------------------------|
B|----6-----------6---------10-----------8--------------------------------|
G|----7-----------7---------10-----------9--------------------------------|
D|----7-----------8---------10----------10--------------------------------|
A|----5----------------------8--------------------------------------------|
E|----------------6----------------------8--------------------------------|

e|----8-----------8----------6-----------6--------------------------------|
B|---10----------10----------6-----------6------8-------------------------|
G|----9-----------9----------7-----------7------9-------------------------|
D|---------------------------8-----------8-----10-------------------------|
A|----------0-----------------------0-------------------------------------|
E|----------------------------------------------8-------------------------|

e|----7-----6-------------------------------------------------------------|
B|---10-----6------8--------------------12--------------------------------|
G|---10-----7------9--------------------12--------------------------------|
D|----------8-----10--------------------12--------------------------------|
A|--------------------------------------10--------------------------------|
E|----------6------8------------------------------------------------------|


| /  slide up
| \  slide down
| h  hammer-on
| p  pull-off
| ~  vibrato
| +  harmonic
| x  Mute note
===========================================================================


vieser@bluewin.ch / www.picante-production.cabanova.de

CHORD DIAGRAMS:
---------------

     Am             Fadd9             F6/9                 G                 Gsus4

 E A D G B  E   E A D G  B  E    E A D G  B  E      E A  D  G  B  E       E A D G B E
 x 0 x 9 10 8   x 8 x 12 10 8    x 8 x 12 10 10     x 10 12 12 12 x


    G/F              F                C/E                 F/D

 E A D G B E   E A D G  B  E      E A D G  B  E     E A D G  B   E
 x 8 x 7 8 7   x 8 x 10 10 8      x 7 x 9  8  8    10 x x 10 10  8

     C              Dm                Bb                   F

E A D G B E    E A D G B E       E A D G B E        E A D G  B  E
 8  x   x   9   8  8             x   5   7    7   6   x                 6    x    8   7  
6   6                     x   8   10 10   10     x
Suggest correction new What's this?
You can suggest a correction to this tab. Community and Mods will review your correction and vote to approve or reject it.
comments
We did not receive enough feedback on this tab! Please rate:
print report bad tab
1 2 3 4 5
guest
You may want to rate the tab now too:
select rating
Please do not post tabs as comments. Select "correction" instead!