Oops, an error
Loading. Please wait.
We have Chord Pro version of Barracuda.
It's the closest thing you can get to the original song and it has interactive parts. Check out the tab »
×
by Heart
93,200 views 105 this week
21 commentsread comments
1 2 3 4 5
x 61
add to favorites
×
Save as Personal and add changes to this tab that will be seen only by you. Learn more ›
×
You can save this tab as Personal to edit and correct it or add notes. All changes will be seen only by you. Learn more »
launch autoscroll
font size
0
reset
how to read this tab
guitar tuner
backing track
0:00
0:00
edit
Autoscroll
slow
fast
+/-
esc
set tempo
stop
Author
Difficulty
Unregistered
e|-------------------------------------------------------------------------|
B|-------------------------------------------------------------12----------|
G|-------------------------------------------------------------12-<12>-~~--|
D|---------------------------------------------------------4-5-------------|
A|----2----2-2-2---2-2-2---2-2-2---2-2-2---2-2-2---2-2-2---4-5-------------|
E|----0----0-0-0---0-0-0---0-0-0---0-0-0---0-0-0---0-0-0---2-3-------------|

There u go it only took me about 5 seconds to find out.

************************************

| ~  Vibrato
| <> Harmonic

************************************

            
            
Suggest correction
Creating personal tab
Creating personal tab
You can edit any tab online and save it as your Personal.

You can edit, replace or remove any tab part or add personal notes – all changes will be seen only by you.

Personal tabs can be accessed anytime from any device, even offline.
Learn more »
comments
print report bad tab
21 comments total. Showing first comments.
-2 reply
FrshChees91 10 Dec 29, 2007 05:33 PM

wow um...wow

-2 reply
Steebs 10 Dec 31, 2007 09:58 AM

Win. >_>

-2 reply
O-52-A-50-R 946 Jan 02, 2008 11:51 AM

|---------------3---|
|---------------3---|
|-------------------|
|2--------4-5-------|
|2--------4-5-------|
|0...
....-2-3-------|


Um..yeah

guest
Wanna post a correction for this tab? Suggest correction