Oops, an error
Loading. Please wait.
We have Chord Pro version of Barracuda.
It's the closest thing you can get to the original song and it has interactive parts. Check out the tab »
×
by Heart
31,604 views 33 this week
3 commentsread comments
1 2 3 4 5
x 8
add to favorites
×
Save as Personal and add changes to this tab that will be seen only by you. Learn more ›
×
You can save this tab as Personal to edit and correct it or add notes. All changes will be seen only by you. Learn more »
launch autoscroll
font size
0
reset
how to read this tab
guitar tuner
backing track
0:00
0:00
edit
Autoscroll
slow
fast
+/-
esc
set tempo
stop
Author
Difficulty
Heart - Barracuda

Tabbed by - deltaguitar

Standard tuning

e--------------14b#-------14---14--15--17--------------------|
b--15b*r15p12------------------------------14-----15--17-----|
g---------------------------------------------------------14-|
d------------------------------------------------------------|
a------------------------------------------------------------|
a------------------------------------------------------------|
e------------------------------------------------------------|

e------------------------------------------------------------|
b-----------12--14--12---------15b*r15p12--------------------|
g-15--16\---12--14--12---------------------------------------|
d-----------------------------------------14-------14()------|
a-----------------------17\----------------------------------|
e------------------------------------------------------------|

e-12---14-----15-----14-----12-----------12-----14------15---|
b-------------------------------15--12-----------------------|
g------------------------------------------------------------|
d------------------------------------------------------------|
a------------------------------------------------------------|
e------------------------------------------------------------|

e-17---17&r---15---17b*--15--------15--15--------15--15------|
b----------------------------17------------17p15-------------|
g------------------------------------------------------------|
d------------------------------------------------------------|
a------------------------------------------------------------|
e------------------------------------------------------------|

e-------15-------15-------15---------------------------------|
b-17p15----17p15----17p15------------------12----------------|
g---------------------------------16\14----12----------------|
d------------------------------------------------------------|
a------------------------------------------------------------|
e------------------------------------------------------------|


pb& = pre-bend 1/2 step
pb^ = pre-bend 1 whole step
b# = 1/2 step bend
b* = 1 whole step bend
h = hammer on
p = pulloff
r = release bend
\ = slide down to
/ = slide up to
() = bend tremolo bar down 1 step

            
            
Suggest correction
Creating personal tab
Creating personal tab
You can edit any tab online and save it as your Personal.

You can edit, replace or remove any tab part or add personal notes – all changes will be seen only by you.

Personal tabs can be accessed anytime from any device, even offline.
Learn more »
comments
print report bad tab
3 comments total.
0 reply
Zezerex 51 Jul 24, 2008 03:18 PM

Try posting the entire song and not just a solo.

0 reply
Picklelerner 30 Aug 29, 2009 02:12 PM

^^^ sometimes i say the same thing, but its always better than nothing. great tab btw

0 reply
trevinwhiteley2000 10 Jul 08, 2017 12:14 AM

nice tab but i think that the 12 14 12 is supposed to be 12 14 -
12 14 12 12 14 12

guest
You may want to rate the tab now too:
select rating
Wanna post a correction for this tab? Suggest correction