Oops, an error
Loading. Please wait.

Barracuda Tab

version 3
version 3

Whole song

Interactive

by Heart
31,373 views 165 this week
8 commentsread comments
1 2 3 4 5
x 15
add to favorites
launch autoscroll
font size
0
reset
how to read this tab
guitar tuner
backing track
0:00
0:00
×
Best way to learn
"Barracuda"
Autoscroll
slow
fast
+/-
esc
set tempo
stop
Difficulty
novice
Song:barracuda

pm=palm mute
h=hammer on
p=pull off
/=slide
b=bend


Intro:

|------------------------------------12-----|
|------------------------------------12-----|
|------------------------------------12-12b-|
|-2-222-222-222-222-222-222-22-4-5-x--------|
|-2-222-222-222-222-222-222-22-4-5-x--------|
|-0-000-000-000-000-000-000-00-2-3-x--------|
|pm- - - - - - - - - - - - - -|

-----------------------------------------------------------|
-----------------------------------------------------------|
--------------------------------------//////////-----------|
-2-222-222-222-222-222-222-22-4-5--------------------------|
-2-222-222-222-222-222-222-22-4-5-----//////////-----------|
-0-000-000-000-000-000-000-00-2-3--------------------------|
|pm- - - - - - - - - - - - - |

----------------------------------12-------------------|
----------------------------------12b~~~~~-------------|
----------------------------------12b~~~~~-------------|
-2-222-222-222-222-222-222-22-4-5----------------------|
-2-222-222-222-222-222-222-22-4-5----------------------|
-0-000-000-000-000-000-000-00-2-3-------------12/0-----|
|pm- - - - - - - - - - - - - |

----------------------------------------------|
----------------------------------------------|
------------------------------------9b~~~~~~--|
-2-222-222-222-222-222-222-22-4-5-------------|
-2-222-222-222-222-222-222-22-4-5-------------|
-0-000-000-000-000-000-000-00-2-3-------------|
|pm- - - - - - - - - - - - - |


Verse 1:
|---------------------------------------|
|---------------------------------------|
|---------------------------------------|
|-2-222-222-222-222-222-222-22----------|
|-2-222-222-222-222-222-222-22-3--333---|
|-0-000-000-000-000-000-000-00-3--333---|
|pm- - - - - - - - - - - - - -|

 (x2)
|----------------------------|------------------------------------|
|----------------------------|------------------------------------|
|----------------------------|------------------------------------|
|2-222-222-222-222-222-222-22|------2-222-222-222-222-222-222-222-|
|2-222-222-222-222-222-222-22|3-333-2-222-222-222-222-222-222-222-|
|0-000-000-000-000-000-000-00|3-333-0-000-000-000-000-000-000-000-|
|pm- - - - - - - - - - - - - |     |pm- - - - - - - - - - - - - - |


Chorus:

|---------------------------------------------------|
|---------------------------------------------------|
|---------------------------------------7-----------|
|-------2-22--2-------------2-22--------7------7----|
|-7-5-3-2-22--2-3-5-7-5-3-3-2-22--------5------7----|
|-7-5-3-0-00--0-3-5-7-5-3-3-0-00---------------5----|
                  |pm- |               |pm-|

Bridge 1
|---------------------------------12---12-10---------------12|
|---------------------------------12---------12-10---------12|
|---------------------------------12b--------------12-9----12|
|2-222-222-222-222-222-222-22-4-5-----------------------12-12|
|2-222-222-222-222-222-222-22-4-5----------------------------|
|0-000-000-000-000-000-000-00-2-3----------------------------|
|pm- - - - - - - - - - - - - -|

Verse 2:
|---------------------------------------|
|---------------------------------------|
|---------------------------------------|
|2-222-222-222-222-222-222-222-222------|
|2-222-222-222-222-222-222-222-222-3----|
|0-000-000-000-000-000-000-000-000-3----|
|pm- - - - - - - - - - - - - - - - |

---------------------------------------|
---------------------------------------|
---------------------------------------|
-2-222-222-222-222---------------------|
-2-222-222-222-222-6b~~~~~~------------|
-0-000-000-000-000---------------------|
|pm- - - - - - - -|

---------------------------------------|
---------------------------------------|
---------------------------------------|
2-222-222-222-222-222-222-222-222------|
2-222-222-222-222-222-222-222-222-3----|
0-000-000-000-000-000-000-000-000-3----|
|pm- - - - - - - - - - - - - - - |

------------------------------|
------------------------------|
------------------------------|
2-222-222-222-222-222-222-222-|
2-222-222-222-222-222-222-222-|
0-000-000-000-000-000-000-000-|
|pm- - - - - - - - - - - - - - |

Chorus

Bridge 2

|----------------------------------|
|----------------------------------|
|------------------------------7-9-|
|-2-222-222-222-222-222-22-4-5-7-9-| (x2)
|-2-222-222-222-222-222-22-4-5-5-7-|
|-0-000-000-000-000-000-00-2-3-----|
|pm- - - - - - - - - - - -|

|----------------------------------------|
|----------------------------------------|
|------------------2---------------------|
|----------2~~~~~~-2---------------------|
|-7--5--3--2~~~~~~-0---------------------|
|-7--5--3--0~~~~~~-----------------------|

|----------------------------------|
|----------------------------------|
|------------------------------7-9-|
|-2-222-222-222-222-222-22-4-5-7-9-| (x2)
|-2-222-222-222-222-222-22-4-5-5-7-|
|-0-000-000-000-000-000-00-2-3-----|
|pm- - - - - - - - - - - -|

|----------------------------------------|
|----------------------------------------|
|------------------2---------------------|
|----------2~~~~~~-2---------------------|
|-7--5--3--2~~~~~~-0---------------------|
|-7--5--3--0~~~~~~-----------------------|

Bridge 3:
|------------------------------|
|------------------------------|
|------------------------------|
|-2-222-222-222-222-4-5-7------| (x2)
|-2-222-222-222-222-4-5-7------|
|-0-000-000-000-000-2-3-5------|

Guitar solo:

|-------------------------------------------------|
|-16b--15-14-19b-17-19-20-------------------------|
|-------------------------17-19-20----------------|
|----------------------------------18-20-21-------|
|-------------------------------------------19-19-|
|-------------------------------------------------|

|-1210----------12-14-15-14-1210---12-14-15-17-19/15-19-15-12--|
|-----1210----------------------12-----------------------------|
|---------9b~~~------------------------------------------------|
|--------------------------------------------------------------|
|--------------------------------------------------------------|
|--------------------------------------------------------------|


|-151215121512--1215--12-/3--------------|
|-------------15-------------------------|
|----------------------------------------|
|----------------------------------------|
|----------------------------------------|
|----------------------------------------|
|very fast- - - - -|

Chorus

Bridge 4:

|------------------------------------|
|------------------------------------|
|------------------------------------|
|-2-222-222-222-222-222-222-222-22---|
|-2-222-222-222-222-222-222-222-22---|
|-0-000-000-000-000-000-000-000-00---|

Guitar solo 2:

|-10~~~-12---12-(1212121212121212)-12--12-10------1214151412-|
|-------12------(1212121212121212)-12--------10--------------|
|-------12-------------------------12-----------9------------|
|------------------------------------------------------------|
|------------------------------------------------------------|
|------------------------------------------------------------|

-12-10-15--19~~--|
-----------------|
-----------------|
-----------------|
-----------------|
-----------------|

Repeat Bridge 4

|--------------------------|
|--------------------------|
|--------------------------|
|-2-222-222-222-222-4-5-7--|
|-2-222-222-222-222-4-5-7--|
|-0-000-000-000-000-2-3-5--|
Suggest correction
comments
print report bad tab
8 comments total. Showing first comments.
+2 reply
Commie-Ferrets 10 May 28, 2008 08:47 PM

Hmmmm
I personally think you overdid the intro.
I know that the intro is not

2-222-222
2-222-222
0-000-000


It makes it sound way to crowded like you're trying to add to much sound into the batch for that tune.

2-222-222-222
0-000-000-000


Is what it should be, sounds alot more whole

But other then that nice job =D

+1 reply
Commie-Ferrets 10 May 28, 2008 08:48 PM

Erk. Sorry I didn't mean to space it like that

Heres the corrections to my corrections XD! Gosh thats embarrassing.

2-222-222
2-222-222
0-000-000

Annnnd the Correction

2-222-222
0-000-000

0 reply
shadow6463 10 Jun 27, 2008 10:34 PM

whats up with the spacing on this? do you really do 12 on the 3 highest strings at the same time as
A 2
E 0
?

guest
You may want to rate the tab now too:
select rating
Wanna post a correction for this tab? Suggest correction