Oops, an error
Loading. Please wait.

Crazy On You Chords

version 1
version 1

Whole song

Interactive

303,264 views 675 this week
11 commentsread comments
1 2 3 4 5
excellent!
x 106
add to favorites
launch autoscroll
font size
0
reset
transpose
0
reset
simplify chords
display chords
guitar tuner
Autoscroll
slow
fast
+/-
esc
set tempo
stop
Help us to improve Ultimate-Guitar.com Take our survey!
×
Author
[Intro]

Am   F    Am    F

e|------------------------------------------------------------|
B|------------------------------------------------------------|
G|------------------------------------------------------------|
D|-----2-0-------------------------2-0------------------------|
A|-0-------3-2-0-----------------0-----3-2-0------------------|
E|---------------1-----------3---------------1-----------3----|

e|------------------------------------------------------------|
B|------------------------------------------------------------|
G|------------------------------------------------------------|
D|-----2-0-----------2-0-----------2-0------------------------|
A|-0-------3-2-0---------3-2-0---------3-2---0----------------|
E|---------------3-------------1-----------3------------------|

Am   F    Am    F
Am   G    F


[Verse]

       Am                  C     
We may still have time, we might still get by
      Dm7                   E7
Every time I think about it I want to cry
     Am                           C
With bombs and the devils and the kids keep coming
  Dm7                      E7              Am Am D  Am Am D
Nowhere to breathe easy no time to be young
      F      G             C         F
But I tell myself that I'm doing all right
        Dm7                  E7
There's nothing left to do tonight


[Chorus]

e|------------------------------------------------------------|
B|------------------------------------------------------------|
G|------------------------------------------------------------|
D|-----2-0-------------------------2-0------------------------|
A|-0-------3-2-0-----------------0-----3-2-0------------------|
E|---------------1-----------3---------------1-----------3----|

e|------------------------------------------------------------|
B|------------------------------------------------------------|
G|------------------------------------------------------------|
D|-----2-0-----------2-0-----------2-0------------------------|
A|-0-------3-2-0---------3-2-0---------3-2---0----------------|
E|---------------3-------------1-----------3------------------|

       Am       F
But go crazy on you
Am       F
Crazy on you
          Am             G          F
Let me go crazy crazy on you


[Verse]

   Am                         C
My love is the evening breeze touching your skin
    Dm7                     E7
The gentle sweet singing of leaves in the wind
    Am                       C
The whisper that calls after you in the night
    Dm7                    E7             Am Am D   Am Am D
And kisses your ear in the early light
    F                 G             C     F
And you don't need to wonder you're doing fine
Dm7                        E7
And my love the pleasure's mine


[Chorus]

e|------------------------------------------------------------|
B|------------------------------------------------------------|
G|------------------------------------------------------------|
D|-----2-0-------------------------2-0------------------------|
A|-0-------3-2-0-----------------0-----3-2-0------------------|
E|---------------1-----------3---------------1-----------3----|

e|------------------------------------------------------------|
B|------------------------------------------------------------|
G|------------------------------------------------------------|
D|-----2-0-----------2-0-----------2-0------------------------|
A|-0-------3-2-0---------3-2-0---------3-2---0----------------|
E|---------------3-------------1-----------3------------------|
          Am       F
Let me go crazy on you
Am       F
Crazy on you
          Am             G          F         Am
Let me go crazy crazy on you


[Bridge]

F#m7                Bm7
Wild man's world is crying in pain
C#m7                          D
What're you going to do - everbody's insane
C#m7                      D
So afraid of one who's so afraid of you
            C#m7         D
What're you going to do?


[Instrumental]

A
E    E/F#   E/G#   E/A


[Chorus]

e|------------------------------------------------------------|
B|------------------------------------------------------------|
G|------------------------------------------------------------|
D|-----2-0-------------------------2-0------------------------|
A|-0-------3-2-0-----------------0-----3-2-0------------------|
E|---------------1-----------3---------------1-----------3----|

e|------------------------------------------------------------|
B|------------------------------------------------------------|
G|------------------------------------------------------------|
D|-----2-0-----------2-0-----------2-0------------------------|
A|-0-------3-2-0---------3-2-0---------3-2---0----------------|
E|---------------3-------------1-----------3------------------|

Am       F
Crazy on you
Am       F
Crazy on you
          Am             G          F 
Let me go crazy crazy on you


[Verse]

Am                  C
I was a willow last night in my dream
  Dm7              E7
I bent down over a clear running stream
  Am                       C
I sang you a song that I heard up above
        Dm7                     E7
And you kept me alive with your sweet flowing love


[Chorus]

e|------------------------------------------------------------|
B|------------------------------------------------------------|
G|------------------------------------------------------------|
D|-----2-0-------------------------2-0------------------------|
A|-0-------3-2-0-----------------0-----3-2-0------------------|
E|---------------1-----------3---------------1-----------3----|

e|------------------------------------------------------------|
B|------------------------------------------------------------|
G|------------------------------------------------------------|
D|-----2-0-----------2-0-----------2-0------------------------|
A|-0-------3-2-0---------3-2-0---------3-2---0----------------|
E|---------------3-------------1-----------3------------------|

Am       F
Crazy on you
Am       F
Crazy on you
          Am             G          F         Am
Let me go crazy crazy on you

Am       F
Crazy on you
Am       F
Crazy on you
          Am             G          F         Am
Let me go crazy crazy on you


[Interlude]


Am    F     Am    F
Am    G     F     Am


[Instrumental]

e|------------------------------------------------------------|
B|------------------------------------------------------------|
G|---------------------------------------------4--------------|
D|-------------2---------------------------4-6---7------------|
A|---------2-4---5-----------------4---5-7--------------------|
E|-2---4-5----------------------------------------------------|

e|---------------------------------------------7--------------|
B|-----------------------------------------7-9---10-----------|
G|---------6-7-9-7-----------------6---7-9--------------------|
D|-6---7-9----------------------------------------------------|
A|------------------------------------------------------------|
E|------------------------------------------------------------|

e|-------10----------------10---------------------------------|
B|-10/12----12\10----10/12----12\10---------------------------|
G|------------------------------------------------------------|
D|------------------------------------------------------------|
A|------------------------------------------------------------|
E|------------------------------------------------------------|
F#m7  Bm7   C#m7  D
C#m7  D     C#m7  D
A
E    E/F#   E/G#   E/A


[Chorus]

e|------------------------------------------------------------|
B|------------------------------------------------------------|
G|------------------------------------------------------------|
D|-----2-0-------------------------2-0------------------------|
A|-0-------3-2-0-----------------0-----3-2-0------------------|
E|---------------1-----------3---------------1-----------3----|

e|------------------------------------------------------------|
B|------------------------------------------------------------|
G|------------------------------------------------------------|
D|-----2-0-----------2-0-----------2-0------------------------|
A|-0-------3-2-0---------3-2-0---------3-2---0----------------|
E|---------------3-------------1-----------3------------------|
Am       F
Crazy on you
Am       F
Crazy on you
          Am             G          F 
Let me go crazy crazy on you
Suggest correction
comments
print report bad tab
11 comments total. Showing first comments. show 1 bad comment
0 reply
oakley007 10 wrote on September 4 2007, 09:28 pm

This is a really nice job. Couple spots don't sound quite right, but thanks for the post!

+4 reply
Zoso518 154 wrote on October 11 2008, 10:00 pm

the spot after Nowhere to breathe easy no time to be young

the chords are Am Am D7 not Am Am D

other than that nice job

guest
You may want to rate the tab now too:
select rating
Wanna post a correction for this tab? Suggest correction