Oops, an error
Loading. Please wait.
We have Chord Pro version of Crazy On You.
It's the closest thing you can get to the original song and it has interactive parts. Check out the tab »
×
by Heart
65,495 views 33 this week
3 commentsread comments
1 2 3 4 5
x 10
add to favorites
×
Save as Personal and add changes to this tab that will be seen only by you. Learn more ›
×
You can save this tab as Personal to edit and correct it or add notes. All changes will be seen only by you. Learn more »
launch autoscroll
font size
0
reset
how to read this tab
guitar tuner
backing track
0:00
0:00
edit
Autoscroll
slow
fast
+/-
esc
set tempo
stop
Author
Difficulty
intermediate
[Intro]
e|------------------|--------------------------------|-------------------------|
B|-------3--1p0-----|--------3p1-0-----1-------------|-------------------------|
G|--2/4-----2p0--0--|---------------2-----2----------|--0-------4-----5--------|
D|------------------|---------------------------2/4--|----------4-----5--------|
A|------------------|--0--0------------0-----0-------|-----0--0-----0----------|
E|------------------|--------------------------------|--------------------5\1--|

e|--------------------------------|----------------------|-----------------------------|
B|--------3p1-0-----1-------------|----------------------|-------------------0--3p1-0--|
G|---------------2-----2----------|--0-----------0-------|--3/4----2-----0h1----0------|
D|---------------------------2/4--|------------2---------|----------------------0------|
A|--0--0------------0-----0-------|-----0--0-3-----2-----|--4/5----4-----0h2----2------|
E|--------------------------------|-------------------3--|------0-----0---------3------|

e|-------------------------------|-------------------------|---------------------------|
B|--------3p1-0-----1------------|-------------------------|--------3p1-0-----1--------|
G|---------------2-----2---------|--0-------4-----5--------|---------------2-----2-----|
D|---------------------------2/4-|----------4-----5--------|---------------------------|
A|--0--0------------0-----0------|-----0--0-----0----------|--0--0------------0-----0--|
E|-------------------------------|--------------------5\1--|---------------------------|

e|---------------------------|--------------5----------|--------------------------------|
B|------------------------3--|--------5p3------0--12*--|--------3p1-0-----1-------------|
G|-------0-------4--5--------|-----4------4----0--12*--|---------------2-----2----------|
D|--2/4----------4-----------|-----------------0--12*--|---------------------------2/4--|
A|----------0--0-------0-----|--0-----0-----0----------|--0--0------------0-----0-------|
E|---------------------------|-------------------------|--------------------------------|

e|----------------------|--------------------------------|-----------------------|
B|----------------------|--------3p1-0-----1-------------|-----------------------|
G|--0-------4-----5-----|---------------2-----2----------|--0-----------0--------|
D|----------4-----5-----|---------------------------2/4--|------------4-------2--|
A|-----0--0----0--------|--0--0------------0-----0-------|-----0----0-----0h3----|
E|-------------------5--|--------------------------------|--------0--------------|

e|------------------------------|--------0-----------------|---------------------------|
B|--------3p1-0-----1-----------|-----------3--1--0--------|--------3p1-0----1---------|
G|---------------2-----2-----0--|-----0--------------2--0--|-------------------2-------|
D|------------------------------|-----------------------0--|------------------------0--|
A|--0--0------------0-----0-----|--------------------------|---------------------------|
E|------------------------------|--3-----------------------|--2--2--------2------2--0--|

e|-----------0--------|--1r--|--0h1h0------0-------------|
B|--------0-----0-----|------|--------0h1----3-1-0-------|
G|--1--1-----1-----1--|------|---------------------1-----|
D|--------2-----2-----|--0r--|---------------------------|
A|-----2-----------2--|------|---------------------------|
E|--------------------|------|-----------------------0r--|
        E Major    PAUSE  

It took me a while to learn this song, but this is how I play it...

************************************

| p  Pull-off
| /  Slide up
| \  Slide down
| h  Hammer-on
| *  Natural harmonic
| r  Release

************************************

            
            
Suggest correction
Creating personal tab
Creating personal tab
You can edit any tab online and save it as your Personal.

You can edit, replace or remove any tab part or add personal notes – all changes will be seen only by you.

Personal tabs can be accessed anytime from any device, even offline.
Learn more »
comments
print report bad tab
3 comments total.
0 reply
James Jarvis 10 May 23, 2007 09:13 PM

i like it! nice tab

0 reply
mr.az 10 May 15, 2009 07:21 AM

nice job I think its pretty Accurate..nice

+1 reply
Davilo69 145 Feb 08, 2011 09:38 AM

Just a few corrections (note: to view the following with the correct
formatting, copy and paste it into a text editor such as Notepad and view
using Courier New font).

The end of the main riff:

e:-----------------------|
B:-----------------------|
G:--------4-----5\-0h2---|
D:--------4-----5\-0h2---|
A:--0--0-----0-------0---|
E:-----------------------|

Release your fretting hand pressure from the 2 middle
strings at about the second or third fret as you are
sliding down from the 5th fret. Then play the 2 middle
strings open and as you hammer-on both strings to the
2nd fret play the open 5th string.

Here’s how it ties into the rest of the song:

e:----------------------------------------|
B:------------------------3p1p0---1-------|
G:--------4-----5\-0h2----------2---2-----|
D:--------4-----5\-0h2--------------------|
A:--0--0-----0-------0--0---------0---0---|
E:----------------------------------------|

I made a few corrections to this part of the song:

e:-----------------------------------------------------------------|
B:----3p1p0---1----------------------------------------------------|
G:----------2---2---------0------------2--1-----3/4-----2-----0h1--|
D:-------------------2/4--------0----2-----------------------------|
A:--0---------0---0----------0-----3------2-----4/5-----4-----2----|
E:-------------------------------------------0-------0-----0-------|

e:--------------------------------|
B:-----------------3p1p0---1------|
G:-----4p2p0--2----------2---2----|
D:-----0------2-------------------|
A:------------0--0---------0---0--|
E:--0--3--------------------------|

A few more changes:

e:-------------------------------------------------5----------|
B:----3p1p0---1------------------------3-----5p3------0---|
G:----------2---2---------0------4---------4-----4----0---|
D:-------------------2/4---------4-4-------4----------0---|
A:--0---------0---0---------0--0-----0---0---0-----0----------|
E:------------------------------------------------------------|

e:-------------------------------------------------------------------|
B:-------3p1p0---1------------------------------------3p1p0---1------|
G:-------------2---2---------0--------4-----5\-0h2----------2---2----|
D:----------------------2/4-----------4-----5\-0h2-------------------|
A:--0--0---------0---0----------0--0-----0-------0--0---------0---0--|
E:-------------------------------------------------------------------|

e:-------------------------------------------------|
B:---------------------------------3p1p0---1-------|
G:-------0-------------------------------2---2-----|
D:--2/4-------0------4-----2-----------------------|
A:---------0-----0h5---0h3----0--0---------0---0---|
E:-------------------------------------------------|

e:---------0-------------------------------------------0---------|
B:-----------3--1--0----------3p1p0---1-------------0-----0------|
G:--0---0------------2-0-2----------2---2---0h1--1-----1-----1---|
D:---------------------0----------------0-----------0-----0------|
A:-------------------------------------------h2--2-----------2---|
E:----3--------------3---2--2---------2---2---0------------------|

e:-------------------------------||
B:--6--5h6p5p3-----5-3-----------||
G:-------------4-5-----5-4-------||
D:--0----------------------6-----||
A:-------------------------------||
E:---------------------------0---||

guest
You may want to rate the tab now too:
select rating
Wanna post a correction for this tab? Suggest correction