Oops, an error
Loading. Please wait.

Crazy On You Bass Tab

version 3
version 3

Whole song

Interactive

2,478 views 15 this week
no commentswrite comment
1 2 3 4 5
accurate
x 3
add to favorites
launch autoscroll
font size
0
reset
guitar tuner
Tab Pro tools
  • play this tab
  • loop segment
  • change instrument
  • show fretboard
  • metronome
×
Best way to learn
"Crazy On You"
Autoscroll
slow
fast
+/-
esc
set tempo
stop
Contributor
Difficulty
intermediate
Sorry I made a mistake on my last tab. This is the proper one.


Intro:
|-----------------------------------------------------------------|
|-----------------------------------------------------------------|
|----0--------------0--------------0------------------------------|
|--3------1-------3------1-------3------3----------1----------3---|

Verses:  "We may still have time..."
|----------------------------------------------1--2--------2------|
|------------------5---2---------3------2---4-----------2---------|
|-------------3----------5-3-5-------5----------------------------|
|--5----0-5-------------------------------------------------------|

|-------------------------------0-1-2--2----9-------2--2----9-----|
|-------5---2---------3------2------------------------------------|
|--3----------5-3-5-------5---------------------------------------|
|-----------------------------------------------------------------|

Pre-chorus: "But I told myself that I was..."
|----------------------------------2-------0---1---------------|
|-------2---------2-3---2------------0-2-----------------------|
|--5----------3-5---------3---5-5------------------------------|
|--------------------------------------------------------------|

Chorus 1: 
|----------------------------------------------------------------------|
|----------------------------------------------------------------------|
|--0--0-0-0--0-0-0--0-0-0----------------------------------------------|
|-------------------------1---1-1-1--1-1-1--1-1-3-3-3------------------|

|-----------------------------------------------------------------------------|
|-----------------------------------------------------------------------------|
|--0--0-0-0--0-0-0--0-0-0-----------------------------------------------------|
|-------------------------3---3-3-3--3-3-3--3-3-3-1--1-1-1--1-1-1--1-1-3------|

Interlude: "Wild man's world..."
|--------------------|---------------2----|-------1------------|----------------2---|
|--------------------|--0-----------------|---------4-2-4------|--0-----------------|
|-------------4-0-4--|------------------2-|--4--------------4--|------------------2-|
|--2-----------------|--------------------|--------------------|--------------------|

|------4-2-4-2-1--2--|--------------------|-------4-2-4-2-1----|--------------------|
|--------------------|--0----------0---0--|--------------------|--4----------4---4--|
|--4-----------------|--------------------|--4-----------------|--------------------|
|--------------------|--------------------|--------------------|--------------------|

|--4----------4---4--|--2----------2---2--|--------------------|--------------------|
|--------------------|--------------------|--------------------|--------------------|
|--------------------|--------------------|--0---0-----0--0-0--|--------------------|
|--------------------|--------------------|--------------------|--0----0---0-0--0---|

|--------------------|--------------------|--------------------|--------------------|
|--------------------|--------------------|--------------------|--------------------|
|--------------------|--------------------|--------------------|--------------------|
|--0----0---0-0--0---|--0----0---0-0--0---|--0-----0----0---3--|--------------------|




-Intro
-Verse
-Pre-chorus
-Chorus
-Verse
-Pre-chorus
-Chorus
-Interlude 
-Chorus
-Verse
-Chorus
-Solo (chorus x2)
-Interlude 
-Chorus
comments
We did not receive enough feedback on this tab! Please rate:
print report bad tab
1 2 3 4 5
I want to post or [tab]
guest
You may want to rate the tab now too:
select rating
Please do not post tabs as comments. Select "correction" instead!