Oops, an error
Loading. Please wait.

How Can I Refuse bass

by Heart
70 views 1 this week
no commentswrite comment
1 2 3 4 5
3 more votes to show rating
add to favorites
×
Save as Personal and add changes to this tab that will be seen only by you. Learn more ›
×
You can save this tab as Personal to edit and correct it or add notes. All changes will be seen only by you. Learn more »
launch autoscroll
font size
0
reset
guitar tuner
edit
Autoscroll
slow
fast
+/-
esc
set tempo
stop
Title: How Can I Refuse
Artist: Heart
Album: Passionworks
Tuning: Standard (E A D G)
Tab Author: Pearce Hamblin (The Bass Diaries)

  [4/4 - Intro]
   1  e  +  a  2  e  +  a  3  e  +  a  4  e  +  a    1  e  +  a  2  e  +  a  3  e  +  a  4  e  +  a
G|-------------------------------------------------|-------------------------------------------------|
D|-------------------------------------------------|-------------------------------------------------|
A|-------------------------------------------------|-------------------------------------------------|
E|-2-----2-----2-----2-----2-----2-----2-----2-----|-2-----2-----2-----2-----2-----2-----2-----2-----|


   1  e  +  a  2  e  +  a  3  e  +  a  4  e  +  a    1  e  +  a  2  e  +  a  3  e  +  a  4  e  +  a
G|-------------------------------------------------|-------------------------------------------------|
D|-------------------------------------------------|-------------------------------------------------|
A|-------------------------------------------------|-------------------------------------------------|
E|-2-----2-----2-----2-----2-----2-----2-----2-----|-2-----2-----2-----2-----2-----2-----2-----2-----|

  [Verse 1]
   1  e  +  a  2  e  +  a  3  e  +  a  4  e  +  a    1  e  +  a  2  e  +  a  3  e  +  a  4  e  +  a
G|-------------------------------------------------|-------------------------------------------------|
D|-------------------------------------------------|-------------------------------------------------|
A|-------------------------------------------------|-------------------------------------------------|
E|-2-----2-----2-----2-----2-----2-----2-----2-----|-2-----2-----2-----2-----2-----2-----2-----2-----|

                                                    [2/4]
   1  e  +  a  2  e  +  a  3  e  +  a  4  e  +  a    1  e  +  a  2  e  +  a
G|-------------------------------------------------|-------------------------|
D|-------------------------------------------------|-------------------------|
A|-------------------------------------------------|-------------------------|
E|-2-----2-----2-----2-----2-----2-----2-----2-----|-2-----2-----2-----0-----|

  [4/4]
   1  e  +  a  2  e  +  a  3  e  +  a  4  e  +  a    1  e  +  a  2  e  +  a  3  e  +  a  4  e  +  a
G|-------------------------------------------------|-------------------------------------------------|
D|-------------------------------------------------|-------------------------------------------------|
A|-------------------------------------------------|-------------------------------------------------|
E|-0-----0-----0-----0-----0-----0-----0-----0-----|-0-----0-----0-----0-----0-----0-----0-----0-----|

                                                    [2/4]
   1  e  +  a  2  e  +  a  3  e  +  a  4  e  +  a    1  e  +  a  2  e  +  a
G|-------------------------------------------------|-------------------------|
D|-------------------------------------------------|-------------------------|
A|-------------------------------------------------|-------------------0-----|
E|-0-----0-----0-----0-----0-----0-----0-----0-----|-0-----0-----0-----------|

  [4/4]
   1  e  +  a  2  e  +  a  3  e  +  a  4  e  +  a    1  e  +  a  2  e  +  a  3  e  +  a  4  e  +  a
G|-------------------------------------------------|-------------------------------------------------|
D|-------------------------------------------------|-------------------------------------------------|
A|-0-----0-----0-----0-----0-----0-----0-----0-----|-0-----0-----0-----0-----0-----0-----0-----0-----|
E|-------------------------------------------------|-------------------------------------------------|

                                                    [2/4]
   1  e  +  a  2  e  +  a  3  e  +  a  4  e  +  a    1  e  +  a  2  e  +  a
G|-------------------------------------------------|-------------------------|
D|-------------------------------------------------|-------------------------|
A|-0-----0-----0-----0-----0-----0-----0-----0-----|-0-----0-----0-----2-----|
E|-------------------------------------------------|-------------------------|

  [4/4]
   1  e  +  a  2  e  +  a  3  e  +  a  4  e  +  a    1  e  +  a  2  e  +  a  3  e  +  a  4  e  +  a
G|-------------------------------------------------|-------------------------------------------------|
D|-------------------------------------------------|-------------------------------------------------|
A|-2-----2-----2-----2-----2-----2-----2-----2-----|-2-----2-----2-----2-----2-----2-----2-----2-----|
E|-------------------------------------------------|-------------------------------------------------|


   1  e  +  a  2  e  +  a  3  e  +  a  4  e  +  a    1  e  +  a  2  e  +  a  3  e  +  a  4  e  +  a
G|-------------------------------------------------|-------------------------------------------------|
D|-------------------------------------------------|-------------------------------------------------|
A|-2-----2-----2-----2-----2-----2-----2-----2-----|-2-----2-----2-----2-----2-----2-----2-----2-----|
E|-------------------------------------------------|-------------------------------------------------|

  [Chorus 1]
   1  e  +  a  2  e  +  a  3  e  +  a  4  e  +  a    1  e  +  a  2  e  +  a  3  e  +  a  4  e  +  a
G|-------------------------------------------------|-------------------------------------------------|
D|-------------------------------------------------|-------------------------------------------------|
A|-2/////4-----4-----4-----4-----4-----4-----4-----|-4-----4-----4-----4-----4-----4-----4-----4-----|
E|-------------------------------------------------|-------------------------------------------------|


   1  e  +  a  2  e  +  a  3  e  +  a  4  e  +  a    1  e  +  a  2  e  +  a  3  e  +  a  4  e  +  a
G|-------------------------------------------------|-------------------------------------------------|
D|-------------------------------------------------|-------------------------------------------------|
A|-0-----0-----0-----0-----0-----0-----------------|-------------------------------2-----2-----2-----|
E|-------------------------------------0-----0-----|-0-----0-----0-----0-----0-----------------------|


   1  e  +  a  2  e  +  a  3  e  +  a  4  e  +  a    1  e  +  a  2  e  +  a  3  e  +  a  4  e  +  a
G|-------------------------------------------------|-------------------------------------------------|
D|-------------------------------------------------|-------------------------------------------------|
A|-2/////4-----4-----4-----4-----4-----4-----4-----|-4-----4-----4-----4-----4-----4-----4-----4-----|
E|-------------------------------------------------|-------------------------------------------------|


   1  e  +  a  2  e  +  a  3  e  +  a  4  e  +  a    1  e  +  a  2  e  +  a  3  e  +  a  4  e  +  a
G|-------------------------------------------------|-------------------------------------------------|
D|-------------------------------------------------|-------------------------------------------------|
A|-0-----0-----0-----0-----0-----0-----------------|-------------------------------2-----------------|
E|-------------------------------------0-----0-----|-0-----0-----0-----0-----0-----------------------|


   1  e  +  a  2  e  +  a  3  e  +  a  4  e  +  a    1  e  +  a  2  e  +  a  3  e  +  a  4  e  +  a
G|-------------------------------------------------|-------------------------------------------------|
D|-------------------------------------------------|-------------------------------------------------|
A|-2/////4-----4-----4-----4-----4-----4-----4-----|-4-----4-----4-----4-----4-----4-----4-----4-----|
E|-------------------------------------------------|-------------------------------------------------|


   1  e  +  a  2  e  +  a  3  e  +  a  4  e  +  a    1  e  +  a  2  e  +  a  3  e  +  a  4  e  +  a
G|-------------------------------------------------|-------------------------------------------------|
D|-------------------------------------------------|-------------------------------------------------|
A|-0-----0-----0-----0-----0-----0-----------------|-------------------------------2-----2-----------|
E|-------------------------------------0-----0-----|-0-----0-----0-----0-----0-----------------------|


   1  e  +  a  2  e  +  a  3  e  +  a  4  e  +  a    1  e  +  a  2  e  +  a  3  e  +  a  4  e  +  a
G|-------------------------------------------------|-------------------------------------------------|
D|-------------------------------------------------|-------------------------------------------------|
A|-2/////4-----4-----4-----4-----4-----4-----4-----|-4-----4-----4-----4-----4-----4-----4-----4-----|
E|-------------------------------------------------|-------------------------------------------------|


   1  e  +  a  2  e  +  a  3  e  +  a  4  e  +  a    1  e  +  a  2  e  +  a  3  e  +  a  4  e  +  a
G|-------------------------------------------------|-------------------------------------------------|
D|-------------------------------------------------|-------------------------------------------------|
A|-0-----0-----0-----0-----0-----0-----0-----0-----|-2-----2-----2-----2-----2-----------------------|
E|-------------------------------------------------|-------------------------------0-----0-----0-----|

  [Verse 2]
   1  e  +  a  2  e  +  a  3  e  +  a  4  e  +  a    1  e  +  a  2  e  +  a  3  e  +  a  4  e  +  a
G|-------------------------------------------------|-------------------------------------------------|
D|-------------------------------------------------|-------------------------------------------------|
A|-------------------------------------------------|-------------------------------------------------|
E|-2-----2-----2-----2-----2-----2-----2-----2-----|-2-----2-----2-----2-----2-----2-----2-----2-----|

                                                    [2/4]
   1  e  +  a  2  e  +  a  3  e  +  a  4  e  +  a    1  e  +  a  2  e  +  a
G|-------------------------------------------------|-------------------------|
D|-------------------------------------------------|-------------------------|
A|-------------------------------------------------|-------------------------|
E|-2-----2-----2-----2-----2-----2-----2-----2-----|-2-----2-----2-----0-----|

  [4/4]
   1  e  +  a  2  e  +  a  3  e  +  a  4  e  +  a    1  e  +  a  2  e  +  a  3  e  +  a  4  e  +  a
G|-------------------------------------------------|-------------------------------------------------|
D|-------------------------------------------------|-------------------------------------------------|
A|-------------------------------------------------|-------------------------------------------------|
E|-0-----0-----0-----0-----0-----0-----0-----0-----|-0-----0-----0-----0-----0-----0-----0-----0-----|

                                                    [2/4]
   1  e  +  a  2  e  +  a  3  e  +  a  4  e  +  a    1  e  +  a  2  e  +  a
G|-------------------------------------------------|-------------------------|
D|-------------------------------------------------|-------------------------|
A|-------------------------------------------------|-------------------0-----|
E|-0-----0-----0-----0-----0-----0-----0-----0-----|-0-----0-----0-----------|

  [4/4]
   1  e  +  a  2  e  +  a  3  e  +  a  4  e  +  a    1  e  +  a  2  e  +  a  3  e  +  a  4  e  +  a
G|-------------------------------------------------|-------------------------------------------------|
D|-------------------------------------------------|-------------------------------------------------|
A|-0-----0-----0-----0-----0-----0-----0-----0-----|-0-----0-----0-----0-----0-----0-----0-----0-----|
E|-------------------------------------------------|-------------------------------------------------|

                                                    [2/4]
   1  e  +  a  2  e  +  a  3  e  +  a  4  e  +  a    1  e  +  a  2  e  +  a
G|-------------------------------------------------|-------------------------|
D|-------------------------------------------------|-------------------------|
A|-0-----0-----0-----0-----0-----0-----0-----0-----|-0-----0-----0-----2-----|
E|-------------------------------------------------|-------------------------|

  [4/4]
   1  e  +  a  2  e  +  a  3  e  +  a  4  e  +  a    1  e  +  a  2  e  +  a  3  e  +  a  4  e  +  a
G|-------------------------------------------------|-------------------------------------------------|
D|-------------------------------------------------|-------------------------------------------------|
A|-2-----2-----2-----2-----2-----2-----2-----2-----|-2-----2-----2-----2-----2-----2-----2-----2-----|
E|-------------------------------------------------|-------------------------------------------------|


   1  e  +  a  2  e  +  a  3  e  +  a  4  e  +  a    1  e  +  a  2  e  +  a  3  e  +  a  4  e  +  a
G|-------------------------------------------------|-------------------------------------------------|
D|-------------------------------------------------|-------------------------------------------------|
A|-2-----2-----2-----2-----2-----2-----2-----2-----|-2-----2-----2-----2-----2-----2-----2-----2-----|
E|-------------------------------------------------|-------------------------------------------------|

  [Chorus 2]
   1  e  +  a  2  e  +  a  3  e  +  a  4  e  +  a    1  e  +  a  2  e  +  a  3  e  +  a  4  e  +  a
G|-------------------------------------------------|-------------------------------------------------|
D|-------------------------------------------------|-------------------------------------------------|
A|-2/////4-----4-----4-----4-----4-----4-----4-----|-4-----4-----4-----4-----4-----4-----4-----4-----|
E|-------------------------------------------------|-------------------------------------------------|


   1  e  +  a  2  e  +  a  3  e  +  a  4  e  +  a    1  e  +  a  2  e  +  a  3  e  +  a  4  e  +  a
G|-------------------------------------------------|-------------------------------------------------|
D|-------------------------------------------------|-------------------------------------------------|
A|-0-----0-----0-----0-----0-----0-----------------|-------------------------------2-----2-----2-----|
E|-------------------------------------0-----0-----|-0-----0-----0-----0-----0-----------------------|


   1  e  +  a  2  e  +  a  3  e  +  a  4  e  +  a    1  e  +  a  2  e  +  a  3  e  +  a  4  e  +  a
G|-------------------------------------------------|-------------------------------------------------|
D|-------------------------------------------------|-------------------------------------------------|
A|-2/////4-----4-----4-----4-----4-----4-----4-----|-4-----4-----4-----4-----4-----4-----4-----4-----|
E|-------------------------------------------------|-------------------------------------------------|


   1  e  +  a  2  e  +  a  3  e  +  a  4  e  +  a    1  e  +  a  2  e  +  a  3  e  +  a  4  e  +  a
G|-------------------------------------------------|-------------------------------------------------|
D|-------------------------------------------------|-------------------------------------------------|
A|-0-----0-----0-----0-----0-----0-----------------|-------------------------------2-----------------|
E|-------------------------------------0-----0-----|-0-----0-----0-----0-----0-----------------------|


   1  e  +  a  2  e  +  a  3  e  +  a  4  e  +  a    1  e  +  a  2  e  +  a  3  e  +  a  4  e  +  a
G|-------------------------------------------------|-------------------------------------------------|
D|-------------------------------------------------|-------------------------------------------------|
A|-2/////4-----4-----4-----4-----4-----4-----4-----|-4-----4-----4-----4-----4-----4-----4-----4-----|
E|-------------------------------------------------|-------------------------------------------------|


   1  e  +  a  2  e  +  a  3  e  +  a  4  e  +  a    1  e  +  a  2  e  +  a  3  e  +  a  4  e  +  a
G|-------------------------------------------------|-------------------------------------------------|
D|-------------------------------------------------|-------------------------------------------------|
A|-0-----0-----0-----0-----0-----0-----------------|-------------------------------2-----2-----------|
E|-------------------------------------0-----0-----|-0-----0-----0-----0-----0-----------------------|


   1  e  +  a  2  e  +  a  3  e  +  a  4  e  +  a    1  e  +  a  2  e  +  a  3  e  +  a  4  e  +  a
G|-------------------------------------------------|-------------------------------------------------|
D|-------------------------------------------------|-------------------------------------------------|
A|-2/////4-----4-----4-----4-----4-----4-----4-----|-4-----4-----4-----4-----4-----4-----4-----4-----|
E|-------------------------------------------------|-------------------------------------------------|


   1  e  +  a  2  e  +  a  3  e  +  a  4  e  +  a    1  e  +  a  2  e  +  a  3  e  +  a  4  e  +  a
G|-------------------------------------------------|-------------------------------------------------|
D|-------------------------------------------------|-------------------------------------------------|
A|-0-----0-----0-----0-----0-----0-----0-----0-----|-2-----2-----2-----2-----2-----2-----2-----------|
E|-------------------------------------------------|-------------------------------------------------|

  [Bridge]
   1  e  +  a  2  e  +  a  3  e  +  a  4  e  +  a    1  e  +  a  2  e  +  a  3  e  +  a  4  e  +  a
G|-------------------------------------------------|-------------------------------------------------|
D|-------------------------------------------------|-------------------------------------------------|
A|-------------------------------------------------|-------------------------------------------------|
E|-0-----------------------------------------------|-------------------------------------------------|


   1  e  +  a  2  e  +  a  3  e  +  a  4  e  +  a    1  e  +  a  2  e  +  a  3  e  +  a  4  e  +  a
G|-------------------------------------------------|-------------------------------------------------|
D|-------------------------------------------------|-------------------------------------------------|
A|-0-----------------------------------------------|-2-----------------------------------------------|
E|-------------------------------------------------|-------------------------------------------------|


   1  e  +  a  2  e  +  a  3  e  +  a  4  e  +  a    1  e  +  a  2  e  +  a  3  e  +  a  4  e  +  a
G|-------------------------------------------------|-------------------------9-----11----9-----------|
D|-------------------------------------------------|-------------------------------------------------|
A|-------------------------------------------------|-------------9--11-------------------------------|
E|-0-----------------------------------------------|-------------------------------------------------|


   1  e  +  a  2  e  +  a  3  e  +  a  4  e  +  a    1  e  +  a  2  e  +  a  3  e  +  a  4  e  +  a
G|-------------------------------------------------|-------------------------------------------------|
D|-------------------------------------------------|-------------------------------------------------|
A|-0-----------------------------------------------|-2-----------------------------------------------|
E|-------------------------------------------------|-------------------------------------------------|


   1  e  +  a  2  e  +  a  3  e  +  a  4  e  +  a    1  e  +  a  2  e  +  a  3  e  +  a  4  e  +  a
G|-------------------------------------------------|-------------------------------------------------|
D|-------------------------------------------------|-------------------------------------------------|
A|-------------------------------------------------|-------------------------------------------------|
E|-0-----------------------------------------------|-------------------------------------------------|


   1  e  +  a  2  e  +  a  3  e  +  a  4  e  +  a    1  e  +  a  2  e  +  a  3  e  +  a  4  e  +  a
G|-------------------------------------------------|-------------------------------------------------|
D|-------------------------------------------------|-------------------------------------------------|
A|-0-----------------------------------------------|-2-----------------------------------------------|
E|-------------------------------------------------|-------------------------------------------------|


   1  e  +  a  2  e  +  a  3  e  +  a  4  e  +  a    1  e  +  a  2  e  +  a  3  e  +  a  4  e  +  a
G|-------------------------------------14----13----|-------------------------------------------------|
D|-------------------------------------------------|-14----------------------------------------------|
A|-------------------------------------------------|-------------------------------------------------|
E|-0-----------------------------------------------|-------------------------------------------------|


   1  e  +  a  2  e  +  a  3  e  +  a  4  e  +  a    1  e  +  a  2  e  +  a  3  e  +  a  4  e  +  a
G|-------------------------------------------------|-------------------------------------------------|
D|-------------------------------------------------|-------------------------------------------------|
A|-0-----0-----0-----0-----0-----0-----0-----0-----|-0-----0-----0-----0-----0-----0-----0-----0-----|
E|-------------------------------------------------|-------------------------------------------------|


   1  e  +  a  2  e  +  a  3  e  +  a  4  e  +  a    1  e  +  a  2  e  +  a  3  e  +  a  4  e  +  a
G|-------------------------------------------------|-------------------------------------------------|
D|-------------------------------------------------|-------------------------------------------------|
A|-2-----2-----2-----2-----2-----2-----2-----2-----|-2-----2-----2-----2-----2-----------2-----3-----|
E|-------------------------------------------------|-------------------------------4-----------------|

  [Chorus 3]
   1  e  +  a  2  e  +  a  3  e  +  a  4  e  +  a    1  e  +  a  2  e  +  a  3  e  +  a  4  e  +  a
G|-------------------------------------------------|-------------------------------------------------|
D|-------------------------------------------------|-------------------------------------------------|
A|-4-----4-----4-----4-----4-----4-----4-----4-----|-4-----4-----4-----4-----4-----4-----4-----4-----|
E|-------------------------------------------------|-------------------------------------------------|


   1  e  +  a  2  e  +  a  3  e  +  a  4  e  +  a    1  e  +  a  2  e  +  a  3  e  +  a  4  e  +  a
G|-------------------------------------------------|-------------------------------------------------|
D|-------------------------------------------------|-------------------------------------------------|
A|-0-----0-----0-----0-----0-----0-----------------|-------------------------------2-----2-----2-----|
E|-------------------------------------0-----0-----|-0-----0-----0-----0-----0-----------------------|


   1  e  +  a  2  e  +  a  3  e  +  a  4  e  +  a    1  e  +  a  2  e  +  a  3  e  +  a  4  e  +  a
G|-------------------------------------------------|-------------------------------------------------|
D|-------------------------------------------------|-------------------------------------------------|
A|-2/////4-----4-----4-----4-----4-----4-----4--4\\|\2//4--4-----4-----4-----4-----4-----4-----4-----|
E|-------------------------------------------------|-------------------------------------------------|


   1  e  +  a  2  e  +  a  3  e  +  a  4  e  +  a    1  e  +  a  2  e  +  a  3  e  +  a  4  e  +  a
G|-------------------------------------------------|-------------------------------------------------|
D|-------------------------------------------------|-------------------------------------------------|
A|-0-----0-----0-----0-----0-----0-----------------|-------------------------------2-----------------|
E|-------------------------------------0-----0-----|-0-----0-----0-----0-----0-----------------------|


   1  e  +  a  2  e  +  a  3  e  +  a  4  e  +  a    1  e  +  a  2  e  +  a  3  e  +  a  4  e  +  a
G|-------------------------------------------------|-------------------------------------------------|
D|-------------------------------------------------|-------------------------------------------------|
A|-2/////4-----4-----4-----4-----4-----4-----4-----|-4-----4-----4-----4-----4-----4-----4-----4-----|
E|-------------------------------------------------|-------------------------------------------------|


   1  e  +  a  2  e  +  a  3  e  +  a  4  e  +  a    1  e  +  a  2  e  +  a  3  e  +  a  4  e  +  a
G|-------------------------------------------------|-------------------------------------------------|
D|-------------------------------------------------|-------------------------------------------------|
A|-0-----0-----0-----0-----0-----0-----------------|-------------------------------------2-----2-----|
E|-------------------------------------0-----0-----|-0-----0-----0-----0-----0-----0-----------------|


   1  e  +  a  2  e  +  a  3  e  +  a  4  e  +  a    1  e  +  a  2  e  +  a  3  e  +  a  4  e  +  a
G|-------------------------------------------------|-------------------------------------------------|
D|-------------------------------------------------|-------------------------------------------------|
A|-2/////4-----4-----4-----4-----4-----4-----4-----|-4-----4-----4-----4-----4-----4-----4-----4-----|
E|-------------------------------------------------|-------------------------------------------------|


   1  e  +  a  2  e  +  a  3  e  +  a  4  e  +  a    1  e  +  a  2  e  +  a  3  e  +  a  4  e  +  a
G|-------------------------------------------------|-------------------------------------------------|
D|-------------------------------------------------|-------------------------------------------------|
A|-0-----0-----0-----0-----0-----0-----0-----0-----|-2-----2-----2-----2-----2-----2-----------------|
E|-------------------------------------------------|-------------------------------------0-----1-----|

  [Solo/Outro]
   1  e  +  a  2  e  +  a  3  e  +  a  4  e  +  a    1  e  +  a  2  e  +  a  3  e  +  a  4  e  +  a
G|-------------------------------------------------|-------------------------------------------------|
D|-------------------------------------------------|-------------------------------------------------|
A|-------------------------------------------------|-------------------------------------------------|
E|-2-----2-----2-----2-----2-----2-----2-----2-----|-2-----2-----2-----2-----2-----2-----2-----2-----|

                                                    [2/4]
   1  e  +  a  2  e  +  a  3  e  +  a  4  e  +  a    1  e  +  a  2  e  +  a
G|-------------------------------------------------|-------------------------|
D|-------------------------------------------------|-------------------------|
A|-------------------------------------------------|-------------------------|
E|-2-----2-----2-----2-----2-----2-----2-----2-----|-2-----2-----2-----0-----|

  [4/4]
   1  e  +  a  2  e  +  a  3  e  +  a  4  e  +  a    1  e  +  a  2  e  +  a  3  e  +  a  4  e  +  a
G|-------------------------------------------------|-------------------------------------------------|
D|-------------------------------------------------|-------------------------------------------------|
A|-------------------------------------------------|-------------------------------------------------|
E|-0-----0-----0-----0-----0-----0-----0-----0-----|-0-----0-----0-----0-----0-----0-----0-----0-----|

                                                    [2/4]
   1  e  +  a  2  e  +  a  3  e  +  a  4  e  +  a    1  e  +  a  2  e  +  a
G|-------------------------------------------------|-------------------------|
D|-------------------------------------------------|-------------------------|
A|-------------------------------------------------|-------------------0-----|
E|-0-----0-----0-----0-----0-----0-----0-----0-----|-0-----0-----0-----------|

  [4/4]
   1  e  +  a  2  e  +  a  3  e  +  a  4  e  +  a    1  e  +  a  2  e  +  a  3  e  +  a  4  e  +  a
G|-------------------------------------------------|-------------------------------------------------|
D|-------------------------------------------------|-------------------------------------------------|
A|-0-----0-----0-----0-----0-----0-----0-----0-----|-0-----0-----0-----0-----0-----0-----0-----0-----|
E|-------------------------------------------------|-------------------------------------------------|

                                                    [2/4]
   1  e  +  a  2  e  +  a  3  e  +  a  4  e  +  a    1  e  +  a  2  e  +  a
G|-------------------------------------------------|-------------------------|
D|-------------------------------------------------|-------------------------|
A|-0-----0-----0-----0-----0-----0-----0-----0-----|-0-----0-----0-----2-----|
E|-------------------------------------------------|-------------------------|

  [4/4]
   1  e  +  a  2  e  +  a  3  e  +  a  4  e  +  a    1  e  +  a  2  e  +  a  3  e  +  a  4  e  +  a
G|-------------------------------------------------|-------------------------------------------4-----|
D|-------------------------------------------------|-------------------------------4-----------------|
A|-2-----2-----2-----2-----2-----2-----2-----2-----|-2-----2-----2-----2-----2-----------------------|
E|-------------------------------------------------|-------------------------------------------------|

                                                    [2/4]
   1  e  +  a  2  e  +  a  3  e  +  a  4  e  +  a    1  e  +  a  2  e  +  a
G|-------------------4-----------------------4-----|-------------------------|
D|-------------4-----------------------4-----------|-------------4-----------|
A|-------2-----------------------2-----------------|-------2-----------------|
E|-------------------------------------------------|-------------------0-----|

  [4/4]
   1  e  +  a  2  e  +  a  3  e  +  a  4  e  +  a    1  e  +  a  2  e  +  a  3  e  +  a  4  e  +  a
G|-------------------------------------------------|-------------------------------------------------|
D|-------------------------------------------------|-------------------------------------------------|
A|-------------------------------------------------|-------------------------------------------------|
E|-2-----2-----2-----2-----2-----2-----2-----2-----|-2-----2-----2-----2-----2-----2-----2-----2-----|

                                                    [2/4]
   1  e  +  a  2  e  +  a  3  e  +  a  4  e  +  a    1  e  +  a  2  e  +  a
G|-------------------------------------------------|-------------------------|
D|-------------------------------------------------|-------------------------|
A|-------------------------------------------------|-------------------------|
E|-2-----2-----2-----2-----2-----2-----2-----2-----|-2-----2-----2-----0-----|

  [4/4]
   1  e  +  a  2  e  +  a  3  e  +  a  4  e  +  a    1  e  +  a  2  e  +  a  3  e  +  a  4  e  +  a
G|-------------------------------------------------|-------------------------------------------------|
D|-------------------------------------------------|-------------------------------------------------|
A|-------------------------------------------------|-------------------------------------------------|
E|-0-----0-----0-----0-----0-----0-----0-----0-----|-0-----0-----0-----0-----0-----0-----0-----0-----|

                                                    [2/4]
   1  e  +  a  2  e  +  a  3  e  +  a  4  e  +  a    1  e  +  a  2  e  +  a
G|-------------------------------------------------|-------------------------|
D|-------------------------------------------------|-------------------------|
A|-------------------------------------------------|-------------------0-----|
E|-0-----0-----0-----0-----0-----0-----0-----0-----|-0-----0-----0-----------|

  [4/4]
   1  e  +  a  2  e  +  a  3  e  +  a  4  e  +  a    1  e  +  a  2  e  +  a  3  e  +  a  4  e  +  a
G|-------------------------------------------------|-------------------------------------------------|
D|-------------------------------------------------|-------------------------------------------------|
A|-0-----0-----0-----0-----0-----0-----0-----0-----|-0-----0-----0-----0-----0-----0-----0-----0-----|
E|-------------------------------------------------|-------------------------------------------------|

                                                    [2/4]
   1  e  +  a  2  e  +  a  3  e  +  a  4  e  +  a    1  e  +  a  2  e  +  a
G|-------------------------------------------------|-------------------------|
D|-------------------------------------------------|-------------------------|
A|-0-----0-----0-----0-----0-----0-----0-----0-----|-0-----0-----0-----2-----|
E|-------------------------------------------------|-------------------------|

  [4/4]
   1  e  +  a  2  e  +  a  3  e  +  a  4  e  +  a    1  e  +  a  2  e  +  a  3  e  +  a  4  e  +  a
G|-------------------------------------------------|-------------------------------------------------|
D|-------------------------------------------------|-------------------------------------------------|
A|-2-----2-----2-----2-----2-----2-----2-----2-----|-2-----2-----2-----2-----2-----2-----2-----2-----|
E|-------------------------------------------------|-------------------------------------------------|

                                                    [2/4]
   1  e  +  a  2  e  +  a  3  e  +  a  4  e  +  a    1  e  +  a  2  e  +  a
G|-------------------------------------------------|-------------------------|
D|-------------------------------------------------|-------------------------|
A|-2-----2-----2-----2-----2-----2-----2-----2-----|-2-----2-----2-----2-----|
E|-------------------------------------------------|-------------------------|



***********************************
| \   Slide down
| /   Slide up
***********************************

            
            
Suggest correction
Creating personal tab
Creating personal tab
You can edit any tab online and save it as your Personal.

You can edit, replace or remove any tab part or add personal notes – all changes will be seen only by you.

Personal tabs can be accessed anytime from any device, even offline.
Learn more »
Give kudos to tab author, rate the tab!
1 2 3 4 5
comments
print report bad tab
guest
You may want to rate the tab now too:
select rating
Wanna post a correction for this tab? Suggest correction