Oops, an error
Loading. Please wait.

Kick It Out bass

version 2
version 2

Whole song

Interactive

by Heart
49 views 3 this week
no commentswrite comment
1 2 3 4 5
3 more votes to show rating
add to favorites
×
Save as Personal and add changes to this tab that will be seen only by you. Learn more ›
×
You can save this tab as Personal to edit and correct it or add notes. All changes will be seen only by you. Learn more »
launch autoscroll
font size
0
reset
guitar tuner
edit
Autoscroll
slow
fast
+/-
esc
set tempo
stop
Author
Difficulty
Title: Kick It Out
Artist: Heart
Album: Little Queen
Tuning: Standard (E A D G)
Tab Author: Pearce Hamblin (The Bass Diaries)

  [4/4 - Intro]
   1  e  +  a  2  e  +  a  3  e  +  a  4  e  +  a    1  e  +  a  2  e  +  a  3  e  +  a  4  e  +  a
G|-------------------------------------------------|-------------------------------------------------|
D|-------5-----4-----2-----4-----2-----------------|-------------------------------------------------|
A|-------------------------------------3-----0-----|-------0-----------------0-----0-----------0-----|
E|-------------------------------------------------|-------------------------------------------------|


   1  e  +  a  2  e  +  a  3  e  +  a  4  e  +  a    1  e  +  a  2  e  +  a  3  e  +  a  4  e  +  a
G|-------------------------------------------------|-------------------------------------------------|
D|-------5-----4-----2-----4-----2-----------------|-------------------------------------------------|
A|-------------------------------------3-----0-----|-------0-----------------0-----0-----------0-----|
E|-------------------------------------------------|-------------------------------------------------|


   1  e  +  a  2  e  +  a  3  e  +  a  4  e  +  a    1  e  +  a  2  e  +  a  3  e  +  a  4  e  +  a
G|-------------------------------------------------|-------------------------------------------------|
D|-------5-----4-----2-----4-----2-----------------|-------------------------------------------------|
A|-------------------------------------3-----0-----|-------0-----------------0-----0-----------0-----|
E|-------------------------------------------------|-------------------------------------------------|


   1  e  +  a  2  e  +  a  3  e  +  a  4  e  +  a    1  e  +  a  2  e  +  a  3  e  +  a  4  e  +  a
G|-------------------------------------------------|-------------------------------------------------|
D|-------5-----4-----2-----4-----2-----------------|-------5-----4-----2-----4-----2-----------------|
A|-------------------------------------4-----------|-------------------------------------4-----5-----|
E|-------------------------------------------------|-------------------------------------------------|

                                                    [Verse 1]
   1  e  +  a  2  e  +  a  3  e  +  a  4  e  +  a    1  e  +  a  2  e  +  a  3  e  +  a  4  e  +  a
G|-------------------------------------------------|-------------------------2-----------------------|
D|-------------------------------------4\\\\\\\\\\\|-------------------2-----------0-----2-----3-----|
A|-------------------------------------------------|-0-----------------------------------------------|
E|-------------------------------------------------|-------------------------------------------------|


   1  e  +  a  2  e  +  a  3  e  +  a  4  e  +  a    1  e  +  a  2  e  +  a  3  e  +  a  4  e  +  a
G|-------------------------------------------------|-------------------------------5-----------------|
D|-------------------------------------------------|-------------------------6//7--------------7-----|
A|-------------------------------------0-----3/////|/5-----------------0-----------------------------|
E|-------------------------------3-----------------|-------------------------------------------------|


   1  e  +  a  2  e  +  a  3  e  +  a  4  e  +  a    1  e  +  a  2  e  +  a  3  e  +  a  4  e  +  a
G|-5-----------------------------------------------|-------------------------2-----------------------|
D|-------------------------7-----------------------|-------------------2-----------------------------|
A|-------------------------------------------------|-0-----------------------------0-----2-----3-----|
E|-------------------------------------------------|-------------------------------------------------|


   1  e  +  a  2  e  +  a  3  e  +  a  4  e  +  a    1  e  +  a  2  e  +  a  3  e  +  a  4  e  +  a
G|-------------------------------------------------|-------------------------------5-----------------|
D|-------------------------------------------------|-------------------------6//7--------------7-----|
A|-------------------------------------0-----3/////|/5-----------------0-----------------------------|
E|-------------------------------3-----------------|-------------------------------------------------|

  [3/4]
   1  e  +  a  2  e  +  a  3  e  +  a    1  e  +  a  2  e  +  a  3  e  +  a
G|-7---------------5h7-----------------|------------------------------------5|
D|------------------------------------6|h7---------------6h7-----------------|
A|-------------------------------------|-------------------------------------|
E|-------------------------------------|-------------------------------------|

                                        [4/4]
   1  e  +  a  2  e  +  a  3  e  +  a    1  e  +  a  2  e  +  a  3  e  +  a  4  e  +  a
G|h7-----------------------------------|-7-----7-----------------------------------------|
D|-----------------6h7-----------------|-------------------------------------------------|
A|-------------------------------------|-------------------------------------------------|
E|-------------------------------------|-------------------------------------------------|

  [Chorus 1]
   1  e  +  a  2  e  +  a  3  e  +  a  4  e  +  a    1  e  +  a  2  e  +  a  3  e  +  a  4  e  +  a
G|-------------------------------------------------|-------------------------------------------------|
D|-------------------------------------------------|-------------------------------------------------|
A|-0-----------0-----0-----0-----0-----0-----0-----|-0-----0-----0-----0-----0-----0-----0-----0-----|
E|-------------------------------------------------|-------------------------------------------------|


   1  e  +  a  2  e  +  a  3  e  +  a  4  e  +  a    1  e  +  a  2  e  +  a  3  e  +  a  4  e  +  a
G|-------------------------------------------------|-------------------------------------------------|
D|-------------------------------------------------|-------------------------------------------------|
A|-2-----2-----2-----2-----2-----2-----2-----2--2--|-2-----2-----2-----2-----2-----2-----2-----0-----|
E|-------------------------------------------------|-------------------------------------------------|


   1  e  +  a  2  e  +  a  3  e  +  a  4  e  +  a    1  e  +  a  2  e  +  a  3  e  +  a  4  e  +  a
G|-------------------------------------------------|-------------------------------------------------|
D|-------------------------7-----------------------|-------------------3-----------------------------|
A|-5-----------7/////9-----------------9-----------|-3-----3-----------------------------------------|
E|-------5-----------------------------------------|-------------------------------------------------|


   1  e  +  a  2  e  +  a  3  e  +  a  4  e  +  a    1  e  +  a  2  e  +  a  3  e  +  a  4  e  +  a
G|-------------------------------------------------|-------------------------------------------------|
D|-------------------------------------------------|-------5-----4-----2-----4-----2-----------------|
A|-0-----------------------------------------------|-------------------------------------3-----0-----|
E|-------------------------------------------------|-------------------------------------------------|

  [Verse 2]
   1  e  +  a  2  e  +  a  3  e  +  a  4  e  +  a    1  e  +  a  2  e  +  a  3  e  +  a  4  e  +  a
G|-------------------------2-----------------------|-------------------------------------------------|
D|-------------------2-----------------------------|-------------------------------------------------|
A|-------------------------------0-----2-----3-----|-------------------------------------0-----3/////|
E|-------------------------------------------------|-------------------------X-----3-----------------|


   1  e  +  a  2  e  +  a  3  e  +  a  4  e  +  a    1  e  +  a  2  e  +  a  3  e  +  a  4  e  +  a
G|-------------------------------5-----------------|-5-----------------------------------------------|
D|-------------------------6//7--------------7-----|-------------------------7-----------------------|
A|/5-----------------0-----------------------------|-------------------------------------------------|
E|-------------------------------------------------|-------------------------------------------------|


   1  e  +  a  2  e  +  a  3  e  +  a  4  e  +  a    1  e  +  a  2  e  +  a  3  e  +  a  4  e  +  a
G|-------------------------2-----------------------|-------------------------------------------------|
D|-------------------2-----------------------------|-------------------------------------------------|
A|-0-----------------------------0-----2-----3-----|-------------------------------------0-----3/////|
E|-------------------------------------------------|-------------------------X-----3-----------------|

                                                    [3/4]
   1  e  +  a  2  e  +  a  3  e  +  a  4  e  +  a    1  e  +  a  2  e  +  a  3  e  +  a
G|-------------------------------5-----------------|-7---------------5h7-----------------|
D|-------------------------6//7--------------7-----|------------------------------------6|
A|/5-----------------0-----------------------------|-------------------------------------|
E|-------------------------------------------------|-------------------------------------|


   1  e  +  a  2  e  +  a  3  e  +  a    1  e  +  a  2  e  +  a  3  e  +  a
G|------------------------------------5|h7-----------------------------------|
D|h7---------------6h7-----------------|-------------------7-----------------|
A|-------------------------------------|-------------------------------------|
E|-------------------------------------|-------------------------------------|

  [4/4 - Verse 3]
   1  e  +  a  2  e  +  a  3  e  +  a  4  e  +  a    1  e  +  a  2  e  +  a  3  e  +  a  4  e  +  a
G|-------------------------2-----------------------|-------------------------------------------------|
D|-------------------2-----------------------------|-------------------------------------------------|
A|-0-----------------------------0-----2-----3-----|-------------------------------------0-----3/////|
E|-------------------------------------------------|-------------------------X-----3-----------------|


   1  e  +  a  2  e  +  a  3  e  +  a  4  e  +  a    1  e  +  a  2  e  +  a  3  e  +  a  4  e  +  a
G|-------------------------------5-----------------|-5-----------------------------------------------|
D|-------------------------6//7--------------7-----|-------------------------7-----------------------|
A|/5-----------------0-----------------------------|-------------------------------------------------|
E|-------------------------------------------------|-------------------------------------------------|


   1  e  +  a  2  e  +  a  3  e  +  a  4  e  +  a    1  e  +  a  2  e  +  a  3  e  +  a  4  e  +  a
G|-------------------------2-----------------------|-------------------------------------------------|
D|-------------------2-----------------------------|-------------------------------------------------|
A|-0-----------------------------0-----2-----3-----|-------------------------------------0-----3/////|
E|-------------------------------------------------|-------------------------X-----3-----------------|

                                                    [3/4]
   1  e  +  a  2  e  +  a  3  e  +  a  4  e  +  a    1  e  +  a  2  e  +  a  3  e  +  a
G|-------------------------------5-----------------|-7---------------5h7-----------------|
D|-------------------------6--7--------------7-----|------------------------------------6|
A|/5-----------------0-----------------------------|-------------------------------------|
E|-------------------------------------------------|-------------------------------------|


   1  e  +  a  2  e  +  a  3  e  +  a    1  e  +  a  2  e  +  a  3  e  +  a  
G|------------------------------------5|h7-----------------------------------|
D|h7---------------6h7-----------------|-----------------6h7-----------------|
A|-------------------------------------|-------------------------------------|
E|-------------------------------------|-------------------------------------|

  [4/4]                                             [Chorus 2]
   1  e  +  a  2  e  +  a  3  e  +  a  4  e  +  a    1  e  +  a  2  e  +  a  3  e  +  a  4  e  +  a
G|-------------------------------------------------|-------------------------------------------------|
D|-0-----0-----------------------------------------|-------------------------------------------------|
A|-------------------------------------------------|-0-----0-----0-----0-----0-----0-----0-----0-----|
E|-------------------------------------------------|-------------------------------------------------|


   1  e  +  a  2  e  +  a  3  e  +  a  4  e  +  a    1  e  +  a  2  e  +  a  3  e  +  a  4  e  +  a
G|-------------------------------------------------|-------------------------------------------------|
D|-------------------------------------------------|-------------------------------------------4/////|
A|-0-----0-----0-----0-----0-----0-----0-----0-----|-2-----2-----2-----2-----2-----2-----2-----------|
E|-------------------------------------------------|-------------------------------------------------|


   1  e  +  a  2  e  +  a  3  e  +  a  4  e  +  a    1  e  +  a  2  e  +  a  3  e  +  a  4  e  +  a
G|-------------------------------------------------|-------------------------------------------------|
D|/9-----------7---------4h6----p4-----------------|-------------------------7-----------------------|
A|-------X-----------X-----------------------0-----|-5-----------7/////9-----------------9\\\\\\\\\\\|
E|-------------------------------------------------|-------5-----------------------------------------|


   1  e  +  a  2  e  +  a  3  e  +  a  4  e  +  a    1  e  +  a  2  e  +  a  3  e  +  a  4  e  +  a
G|-------------------------------------------------|-------------------------------------------------|
D|-------------------3-----------------------------|-------------------------------------------------|
A|\3-----3-----------------------------------------|-0-----------------------------------------------|
E|-------------------------------------------------|-------------------------------------------------|

                                                    [Post-Chorus 1]
   1  e  +  a  2  e  +  a  3  e  +  a  4  e  +  a    1  e  +  a  2  e  +  a  3  e  +  a  4  e  +  a
G|-------------------------------------------------|-------------------------------------------------|
D|-------5-----4-----2-----4-----2-----------------|-------------------------------------------------|
A|-0-----------------------------------3-----0-----|-------0-----0-----0-----0-----0-----0-----0-----|
E|-------------------------------------------------|-------------------------------------------------|


   1  e  +  a  2  e  +  a  3  e  +  a  4  e  +  a    1  e  +  a  2  e  +  a  3  e  +  a  4  e  +  a
G|-------------------------------------------------|-------------------------------------------------|
D|-------5-----4-----2-----4-----2-----------------|-------------------------------------------------|
A|-0-----------------------------------3-----2-----|-------2-----2-----2-----2-----2-----2-----2-----|
E|-------------------------------------------------|-------------------------------------------------|


   1  e  +  a  2  e  +  a  3  e  +  a  4  e  +  a    1  e  +  a  2  e  +  a  3  e  +  a  4  e  +  a
G|-------------------------------------------------|-------------------------------------------------|
D|-------------------------------------------------|-------------------------7-----------------------|
A|-2-----2-----2-----2-----2-----2-----2-----0-----|-5-----------7/////9-----------------9\\\\\\\\\\\|
E|-------------------------------------------------|-------5-----------------------------------------|


   1  e  +  a  2  e  +  a  3  e  +  a  4  e  +  a    1  e  +  a  2  e  +  a  3  e  +  a  4  e  +  a
G|-------------------------------------------------|-------------------------------------------------|
D|-------------------3-----------------------------|-------------------------------------------------|
A|\3-----3-----------------------------------------|-0-----------------------------------------------|
E|-------------------------------------------------|-------------------------------------------------|

                                                    [Solo]
   1  e  +  a  2  e  +  a  3  e  +  a  4  e  +  a    1  e  +  a  2  e  +  a  3  e  +  a  4  e  +  a
G|-------------------------------------------------|-------------------------------------------------|
D|-------------------------------------------------|-------------------------------------------------|
A|-------------------------------------------------|-------------------------------------------------|
E|-------------------------------------------2-----|-------------X-----2-----2-----------X-----2-----|


   1  e  +  a  2  e  +  a  3  e  +  a  4  e  +  a    1  e  +  a  2  e  +  a  3  e  +  a  4  e  +  a
G|-------------------------------------------------|-------------------------------------------------|
D|-------4-----6-----7-----------------------------|-------------------------------------------------|
A|-------------------------------------------------|-------------------------------------------------|
E|-------------------------------7-----9-----10----|-------------X-----10----10----------X-----10----|


   1  e  +  a  2  e  +  a  3  e  +  a  4  e  +  a    1  e  +  a  2  e  +  a  3  e  +  a  4  e  +  a
G|-------------------------------------------------|-------------------------------------------------|
D|-------------------------------7-----9-----------|-------------------------------------------------|
A|-------------7-----9-----------------------------|-------------------------------------------------|
E|-10----10----------------------------------7-----|-------------X-----7-----7-----------X-----7-----|


   1  e  +  a  2  e  +  a  3  e  +  a  4  e  +  a    1  e  +  a  2  e  +  a  3  e  +  a  4  e  +  a
G|-------------------------------------------------|-------------------------------------------------|
D|-------9-----7-----6-----------------------------|-------------------------------------------------|
A|-------------------------------9-----------7-----|-7-----------------7-----------------7-----------|
E|-7-----------------------------------------------|-------------------------------------------------|

                                                    [3/4]
   1  e  +  a  2  e  +  a  3  e  +  a  4  e  +  a    1  e  +  a  2  e  +  a  3  e  +  a
G|-------------------------------------------------|-------------------------------------|
D|-------------------------------------------------|-------------------7-----------------|
A|-------------------------------------------------|-------------------------------------|
E|-------------------------------------------------|-5-----------------------------------|


   1  e  +  a  2  e  +  a  3  e  +  a    1  e  +  a  2  e  +  a  3  e  +  a
G|-------------------------------------|-------------------------------------|
D|-------------------7-----------------|-------------------5-----------------|
A|-------------------------------------|-------------------------------------|
E|-5-----------------------------------|-3-----------------------------------|


   1  e  +  a  2  e  +  a  3  e  +  a    1  e  +  a  2  e  +  a  3  e  +  a
G|-------------------------------------|-------------------------------------|
D|-------------------5-----------------|-------------------12--------------12|
A|-------------------------------------|-------------------------------------|
E|-3-----------------------------------|-10----------------------------------|


   1  e  +  a  2  e  +  a  3  e  +  a    1  e  +  a  2  e  +  a  3  e  +  a
G|-------------------11----------------|-12----------------14----------------|
D|h14----------------------------------|-------------------------------------|
A|-------------------------------------|-------------------------------------|
E|-------------------------------------|-------------------------------------|

  [4/4]                                             [Post-Chorus 2]
   1  e  +  a  2  e  +  a  3  e  +  a  4  e  +  a    1  e  +  a  2  e  +  a  3  e  +  a  4  e  +  a
G|-------------------------------------------------|-------------------------------------------------|
D|-12----12----------------------------------------|-------------------------------------------------|
A|-------------------------------------12\\\\\\\\\\|\0-----0-----0-----0-----0-----0-----0-----0-----|
E|-------------------------------------------------|-------------------------------------------------|


   1  e  +  a  2  e  +  a  3  e  +  a  4  e  +  a    1  e  +  a  2  e  +  a  3  e  +  a  4  e  +  a
G|-------------------------------------------------|-------------------------------------------------|
D|-------------------------------------------------|-------------------------------------------------|
A|-0-----0-----0-----0-----0-----0-----0-----0-----|-2-----2-----2-----2-----2-----2-----2-----2-----|
E|-------------------------------------------------|-------------------------------------------------|


   1  e  +  a  2  e  +  a  3  e  +  a  4  e  +  a    1  e  +  a  2  e  +  a  3  e  +  a  4  e  +  a
G|-------------------------------------------------|-------------------------------------------------|
D|-------------------------------------------------|-------------------------7-----------------------|
A|-2-----2-----2-----2-----2-----2-----2-----0-----|-5-----------7/////9-----------------9\\\\\\\\\\\|
E|-------------------------------------------------|-------5-----------------------------------------|


   1  e  +  a  2  e  +  a  3  e  +  a  4  e  +  a    1  e  +  a  2  e  +  a  3  e  +  a  4  e  +  a
G|-------------------------------------------------|-------------------------------------------------|
D|-------------------3-----------------------------|-------------------------------------------------|
A|\3-----3-----------------------------------------|-0-----0-----0-----0-----0-----0-----0-----0-----|
E|-------------------------------------------------|-------------------------------------------------|


   1  e  +  a  2  e  +  a  3  e  +  a  4  e  +  a    1  e  +  a  2  e  +  a  3  e  +  a  4  e  +  a
G|-------------------------------------------------|-------------------------------------------------|
D|-------------------------------------------------|-------------------------------------------------|
A|-0-----0-----0-----0-----0-----0-----3-----2-----|-------2-----2-----2-----2-----2-----2-----2-----|
E|-------------------------------------------------|-------------------------------------------------|


   1  e  +  a  2  e  +  a  3  e  +  a  4  e  +  a    1  e  +  a  2  e  +  a  3  e  +  a  4  e  +  a
G|-------------------------------------------------|-------------------------------------------------|
D|-------------------------------------------------|-------------------------7-----------------------|
A|-2-----2-----2-----2-----2-----2-----2-----0-----|-5-----------7/////9-----------------9\\\\\\\\\\\|
E|-------------------------------------------------|-------5-----------------------------------------|


   1  e  +  a  2  e  +  a  3  e  +  a  4  e  +  a    1  e  +  a  2  e  +  a  3  e  +  a  4  e  +  a
G|-------------------------------------------------|-------------------------------------------------|
D|-------------------3-----------------------------|-------5-----4-----2-----4-----2-----------------|
A|\3-----3-----------------------------------0-----|-------------------------------------3-----0-----|
E|-------------------------------------------------|-------------------------------------------------|

  [Outro]
   1  e  +  a  2  e  +  a  3  e  +  a  4  e  +  a    1  e  +  a  2  e  +  a  3  e  +  a  4  e  +  a
G|-------------------------------------------------|-------------------------------------------------|
D|-------5-----4-----2-----4-----2-----------------|-------5-----4-----2-----4-----2-----------------|
A|-------------------------------------3-----0-----|-------------------------------------3-----0-----|
E|-------------------------------------------------|-------------------------------------------------|


   1  e  +  a  2  e  +  a  3  e  +  a  4  e  +  a    1  e  +  a  2  e  +  a  3  e  +  a  4  e  +  a
G|-------------------------------------------------|-------------------------------------------------|
D|-------------------------------------------------|-------------------------------------------------|
A|-------------------------------------------------|-------------------------------------------------|
E|-------------------------------------------------|-------------------------------------------------|


   1  e  +  a  2  e  +  a  3  e  +  a  4  e  +  a    1  e  +  a  2  e  +  a  3  e  +  a  4  e  +  a
G|-------------------------------------------------|-------------------------------------------------|
D|-------------------------------------------------|-------------------------------------------------|
A|-------------------------------------------------|-------------------------------------------------|
E|-------------------------------------------------|-------------------------------------------------|


   1  e  +  a  2  e  +  a  3  e  +  a  4  e  +  a    1  e  +  a  2  e  +  a  3  e  +  a  4  e  +  a
G|-------------------------------------------------|-------14\\\\\\\\\\\\\\--------------------------|
D|-------------------------------------------------|-------14\\\\\\\\\\\\\\--------------------------|
A|-------------------------------------------------|-------12\\\\\\\\\\\\\\--------------------------|
E|-------------------------------------------------|-------------------------------------------------|


***********************************
| /   Slide up
| \   Slide down
| h   Hammer on
| p   Pull off
| X   Dead note
***********************************
Suggest correction
Creating personal tab
Creating personal tab
You can edit any tab online and save it as your Personal.

You can edit, replace or remove any tab part or add personal notes – all changes will be seen only by you.

Personal tabs can be accessed anytime from any device, even offline.
Learn more »
Give kudos to tab author, rate the tab!
1 2 3 4 5
comments
print report bad tab
guest
You may want to rate the tab now too:
select rating
Wanna post a correction for this tab? Suggest correction