Oops, an error
Loading. Please wait.

Mistral Wind Tab

version 1
version 1

Intro

Interactive

6,415 views 21 this week
no commentswrite comment
1 2 3 4 5
please rate
add to favorites
launch autoscroll
font size
0
reset
how to read this tab
guitar tuner
Tab Pro tools
  • play this tab
  • loop segment
  • change instrument
  • show fretboard
  • metronome
×
Best way to learn
"Mistral Wind"
Autoscroll
slow
fast
+/-
esc
set tempo
stop
Contributor
Difficulty
intermediate
Artist: Heart
Song: Mistral Wind
Album: Dog and Butterfly

< > = harmonics, v = vibrato…and lots of it!
To play along with the album tune all the strings slightly flat.
Chords: F: 133211 Variation of F: 133200
             Am2: x02200 Variation of Am2: x02000  (Basically you\'re opening and 
the top two or three strings)

Intro:
------------------------------------------------------------|
------------------------------------------------------------|
------------------------------------------------------------|
-----------------5v----------5v-------------------3v--------|
-------3-----3---3v------3v-------------1-----1---1v--------|
-4--5-----4------4v--4v----------2--3-----2-------2v--------|

-------------------------------------------------------------|
-------------------------------------------------------------|
------------------------0------------------------------------|
----3------------3---------0------(0)------------------------|
-1-----1-----3------3---------3------------------------------|
-----------1----------------------------1--------------------|

----------------------------------------------------------------------------|
----------------------------------------------------------------------------|
------------------------------------------------------2--0------------------|
-----------------5v----------5v------------------3----------0--3------------|
-------3-----3---3v------3v-------------1-----1----------------------3------|
-4--5-----4------4v--4v----------2--3-----2----------------------1----------|

-------------------------------------------------------------|
-------------------------------------------------------------|
-2--0-------------0------------------------------------------|
--------3--0---------0---------------------------------------|
---------------3---------3-----------------------------------|
-------------------------------------------------------------|

“No wind when I…” (picking based on idea of opening and closing top strings on those F and Am2 chords)
-------------------------0-------------0------------------------------|
-------------------------0-------------0------------------0-----------|
--------------0-----2----2---------2---2--2------------2-----2--------|
-------3------------3----------2------(2)-----2------2----------------|
----3-----3---------3------0----------(0)--------0--------------------|
-1---------------1----------------------------------------------------|

“I lay on that…”
 ---------------------------------------------------------------------------------|
-------------0----------------------------------0---------------------0-----------|
----------2-------------------2--0--------2-------0-----0---------2------2--------|
-------3--------3---------3------------2----2--------2---------2------------------|
----3------------------3------------0------------------------0--------------------|
-1------------------1-------------------------------------------------------------|

“Close my eyes…”
----------1-----------1--------------------(1)----1--1--1--0--0--0--0----------------|
-------0-----------0-----0------------------1-----1--1--1--0--0--0--0----------------|
----2-----------2-----------2-----------1---------1--1--1--2--2--2--2----------------|
-0-----------0-----------------0-----0------------0--0--0--2--2--2--2----------------|
-----------------------------------3--------------3--3--3--0--0--0--0----------------|
-------------------------------------------------------------------------------------|

--------------------------------------------------------------------------------------|
--------------------------------------------------------------------------------------|
-------------------------------------------------------2--0---------------------------|
-----------------5v----------5v------------------3-----------3------------------------|
-------3-----3---3v------3v-------------1-----1---------------------------------------|
-4--5-----4------4v--4v----------2--3-----2--------1-----------1----------------------|

(1:15) Open and close F.
Verse 2 Open and close F and Am2 chords.

Then…
----------1------------------------5--------5----------------|
-------0-----0-----0------------6-----6-----6----------------|
----2-----------2-----2------4-----------4--5----------------|
-0------------------------0-----------------0----------------|
-------------------------------------------------------------|
-------------------------------------------------------------|

-----------1------------3--1---0--0--0--0--<12>--------------|
-----------1------------1--1---0--0--0--0--<12>--------------|
-------1--(1)--------1--1--1---2--2--2--2--<12>--------------|
----0-----(0)-----0------------2--2--2--2--------------------|
-3-------------3---------------0--0--0--0--------------------|
-------------------------------------------------------------|


---------------------------0--0------------------------------|
---------------------------0--0------------------------------|
---------------------------2--2------------------------------|
-----------------5v---3v---2--2------------------------------|
-------3-----3---3v---2v---0--0------------------------------|
-4--5-----4------4v---0----0--0------------------------------|


----------------------------0--------------------------------|
----------------------------0--------------------------------|
----------------------------2--------------------------------|
-----------------5v--3v-----2--------------------------------|
-------3-----3---3v--2v-----0--------------------------------|
-4--5-----4------4v--0------0--------------------------------|


good luck!!!!!!!!!!!!!!!!!!!!!!!!!!!!!!!!!!!!!!!!!!!!!!!!!!!111
comments
We did not receive enough feedback on this tab! Please rate:
print report bad tab
1 2 3 4 5
I want to post or [tab]
guest
You may want to rate the tab now too:
select rating
Please do not post tabs as comments. Select "correction" instead!