Oops, an error
Loading. Please wait.

Never Tab

version 1
version 1

Whole song

Interactive

4,844 views 6 this week
2 commentsread comments
1 2 3 4 5
excellent!
x 3
add to favorites
launch autoscroll
font size
0
reset
how to read this tab
guitar tuner
Autoscroll
slow
fast
+/-
esc
set tempo
stop
Help us to improve Ultimate-Guitar.com Take our survey!
×
---------------------------------------------------------------------
                             Never - Heart
---------------------------------------------------------------------
Tabbed by: Spence (Alex's Disciple)
Email: pointgodspence@hotmail.com

Tuning: Standard

Intro:

e|------------------------------------------------------------------|
B|--9-9-11-11--------9-9-9-9-11-11----------------------------------|
G|------------10-10----------------10-10----------------------------|
D|-----------------------------------------6-6---6---6-8------------|
A|-----------------------------------------6-6---6---6-8------------|
E|-----------------------------------------4-4---4---4-6------------|

Ooh Ooh, oh yea yea!
e|------------------------------------------------------------------|
B|--9-9-11-11--------9-9-9-9-11-11----------------------------------|
G|------------10-10----------------10-10----------------------------|
D|-----------------------------------------6-6---6---6-8------------|
A|-----------------------------------------6-6---6---6-8------------|
E|-----------------------------------------4-4---4---4-6------------|

Oh oh oh woah oh woah oh woah woah
e|------------------------------------------------------------------|
B|--9-9-11-11--------9-9-9-9-11-11----------------------------------|
G|------------10-10----------------10-10----------------------------|
D|-----------------------------------------6-6---6---6-8------------|
A|-----------------------------------------6-6---6---6-8------------|
E|-----------------------------------------4-4---4---4-6------------|

Oh oh oh woah oh woah oh woah woah
e|------------------------------------------------------------------|
B|--9-9-11-11--------9-9-9-9-11-11----------------------------------|
G|------------10-10----------------10-10----------------------------|
D|-----------------------------------------6-6---6---6-8------------|
A|-----------------------------------------6-6---6---6-8------------|
E|-----------------------------------------4-4---4---4-6------------|

e|--------------------------------------------------------------------------|
B|--------------------------------------------------------------------------|
G|--------------------------------------------------------------------------|
D|-6-6---6---6-8----6-6---6---6-8----6-6---6---6-8---8--6--4----6-6-6-6--8\-|
A|-6-6---6---6-8----6-6---6---6-8----6-6---6---6-8---8--6--4----6-6-6-6--8\-|
E|-4-4---4---4-6----4-4---4---4-6----4-4---4---4-6---6--4--2----4-4-4-4--6\-|

Verse: x2

Hey baby I'm talking to you, stop yourself and listen, 
Somethings you can never never choose even if you will try, yeah.
You're banging your head again, 'cause somebody won't let you in,
One chance, one love, your chance to let me know.
e|--------------------------------------------------------------------------|
B|--------------------------------------------------------------------------|
G|--------------------------------------------------------------------------|
D|-8-8--8-8-8-8--4--4----6-6-6-6--8\---8-8--8-8-8-8--4--4--4----6-6-6-6--8\-|
A|-8-8--8-8-8-8--4--4----6-6-6-6--8\---8-8--8-8-8-8--4--4--4----6-6-6-6--8\-|
E|-6-6--6-6-6-6--2--2----4-4-4-4--6\---6-6--6-6-6-6--2--2--2----4-4-4-4--6\-|

Bridge:

We can't go on and on, just running away
e|------------------------------------------------------------------|
B|--9-9-11-11--------9-9-9-9-11-11----------------------------------|
G|------------10-10----------------10-10----------------------------|
D|-----------------------------------------6-6---6---6-8------------|
A|-----------------------------------------6-6---6---6-8------------|
E|-----------------------------------------4-4---4---4-6------------|

If we stay any longer, we will surely never get away
e|------------------------------------------------------------------|
B|--9-9-11-11--------9-9-9-9-11-11----------------------------------|
G|------------10-10----------------10-10----------------------------|
D|-----------------------------------------6-6---6---6-8------------|
A|-----------------------------------------6-6---6---6-8------------|
E|-----------------------------------------4-4---4---4-6------------|

Oh Oh Woah, Anything you want, we can make it happen
e|------------------------------------------------------------------|
B|--9-9-11-11--------9-9-9-9-11-11----------------------------------|
G|------------10-10----------------10-10----------------------------|
D|-----------------------------------------6-6---6---6-8------------|
A|-----------------------------------------6-6---6---6-8------------|
E|-----------------------------------------4-4---4---4-6------------|

Stand up and turn around
e|--------------------------------------|
B|--9-9-11-11------9-9-9-9-11-11--------|
G|-----------10-10---------------10-10--|
D|--------------------------------------|
A|--------------------------------------|
E|--------------------------------------|

Never let them shoot us down
e|---------------------------------------------------|
B|--11-11-11-11-13-13------11-11-11-11-13-13---------|
G|-------------------13-13------------------13-13----|
D|---------------------------------------------------|
A|---------------------------------------------------|
E|---------------------------------------------------|

Chorus:

   Never,      Never,         Never,         Never run away.
e|------------------------------------------------------------------------|
B|------------------------------------------------------------------------|
G|------------------------------------------------------------------------|
D|--6----8--------6----8--------6----8---------8--6--4--------6-6-6-6--8\-|
A|--6----8--------6----8--------6----8---------8--6--4--------6-6-6-6--8\-|
E|--4----6--------4----6--------4----6---------6--4--2--------4-4-4-4--6\-|

Verse: x2

Hey baby you know it's time, why you bother lyin'?
When you know, that you want it too, don't you dare deny me.
Now walk those legs right over here and give me what I'm dyin' for
One chance, one love, hold me down, never let me go.
e|--------------------------------------------------------------------------|
B|--------------------------------------------------------------------------|
G|--------------------------------------------------------------------------|
D|-8-8--8-8-8-8--4--4----6-6-6-6--8\---8-8--8-8-8-8--4--4--4----6-6-6-6--8\-|
A|-8-8--8-8-8-8--4--4----6-6-6-6--8\---8-8--8-8-8-8--4--4--4----6-6-6-6--8\-|
E|-6-6--6-6-6-6--2--2----4-4-4-4--6\---6-6--6-6-6-6--2--2--2----4-4-4-4--6\-|

Bridge:

We can't go on and on, just running away
e|------------------------------------------------------------------|
B|--9-9-11-11--------9-9-9-9-11-11----------------------------------|
G|------------10-10----------------10-10----------------------------|
D|-----------------------------------------6-6---6---6-8------------|
A|-----------------------------------------6-6---6---6-8------------|
E|-----------------------------------------4-4---4---4-6------------|

If we stay any longer, we will surely never get away
e|------------------------------------------------------------------|
B|--9-9-11-11--------9-9-9-9-11-11----------------------------------|
G|------------10-10----------------10-10----------------------------|
D|-----------------------------------------6-6---6---6-8------------|
A|-----------------------------------------6-6---6---6-8------------|
E|-----------------------------------------4-4---4---4-6------------|

Oh Oh Woah, Anything you want, we can make it happen
e|------------------------------------------------------------------|
B|--9-9-11-11--------9-9-9-9-11-11----------------------------------|
G|------------10-10----------------10-10----------------------------|
D|-----------------------------------------6-6---6---6-8------------|
A|-----------------------------------------6-6---6---6-8------------|
E|-----------------------------------------4-4---4---4-6------------|

Stand up and turn around
e|--------------------------------------|
B|--9-9-11-11------9-9-9-9-11-11--------|
G|-----------10-10---------------10-10--|
D|--------------------------------------|
A|--------------------------------------|
E|--------------------------------------|

Never let them shoot us down
e|---------------------------------------------------|
B|--11-11-11-11-13-13------11-11-11-11-13-13---------|
G|-------------------13-13------------------13-13----|
D|---------------------------------------------------|
A|---------------------------------------------------|
E|---------------------------------------------------|

Chorus:

   Never,      Never,         Never,         Never run away.
e|-------------------------------------------------------------|
B|-------------------------------------------------------------|
G|-------------------------------------------------------------|
D|--6----8--------6----8--------6----8---------8--6--4---------|
A|--6----8--------6----8--------6----8---------8--6--4---------|
E|--4----6--------4----6--------4----6---------6--4--2---------|

    Never,      Never,         Never,         Never run away.
e|------------------------------------------------------------------------|
B|------------------------------------------------------------------------|
G|------------------------------------------------------------------------|
D|--6----8--------6----8--------6----8---------8--6--4--------6-6-6-6--8\-|
A|--6----8--------6----8--------6----8---------8--6--4--------6-6-6-6--8\-|
E|--4----6--------4----6--------4----6---------6--4--2--------4-4-4-4--6\-|

Interlude:

e|--------------------------------------------------------------------------|
B|--------------------------------------------------------------------------|
G|--------------------------------------------------------------------------|
D|-8-8--8-8-8-8--4--4--6-6-6-6--8\---8-8--8-8-8-8--4--4--4--6-6-6-6-6-6--8\-|
A|-8-8--8-8-8-8--4--4--6-6-6-6--8\---8-8--8-8-8-8--4--4--4--6-6-6-6-6-6--8\-|
E|-6-6--6-6-6-6--2--2--4-4-4-4--6\---6-6--6-6-6-6--2--2--2--4-4-4-4-4-4--6\-|

Verse: x2

Hey baby, I'm talking to you, stop yourself and listen,
Somethings you can never ever choose, even if you try, yeah.
You're banging your head again, 'cause somebody won't let you in,
One chance, one love, your chance to let me, know.
e|--------------------------------------------------------------------------|
B|--------------------------------------------------------------------------|
G|--------------------------------------------------------------------------|
D|-8-8--8-8-8-8--4--4----6-6-6-6--8\---8-8--8-8-8-8--4--4--4----6-6-6-6--8\-|
A|-8-8--8-8-8-8--4--4----6-6-6-6--8\---8-8--8-8-8-8--4--4--4----6-6-6-6--8\-|
E|-6-6--6-6-6-6--2--2----4-4-4-4--6\---6-6--6-6-6-6--2--2--2----4-4-4-4--6\-|

Outro:

We can't go on and on, just running away
e|------------------------------------------------------------------|
B|--9-9-11-11--------9-9-9-9-11-11----------------------------------|
G|------------10-10----------------10-10----------------------------|
D|-----------------------------------------6-6---6---6-8------------|
A|-----------------------------------------6-6---6---6-8------------|
E|-----------------------------------------4-4---4---4-6------------|

If we stay any longer, we will surely never get away
e|------------------------------------------------------------------|
B|--9-9-11-11--------9-9-9-9-11-11----------------------------------|
G|------------10-10----------------10-10----------------------------|
D|-----------------------------------------6-6---6---6-8------------|
A|-----------------------------------------6-6---6---6-8------------|
E|-----------------------------------------4-4---4---4-6------------|

    Oh oh woah                           Never
e|--------------------------------------------------------------|
B|--9-9-11-11--------9-9-9-9-11-11------------------------------|
G|------------10-10----------------10-10------------------------|
D|-----------------------------------------6--------8-----------|
A|-----------------------------------------6--------8-----------|
E|-----------------------------------------4--------6-----------|

    Oh oh woah                           Never
e|--------------------------------------------------------------|
B|--9-9-11-11--------9-9-9-9-11-11------------------------------|
G|------------10-10----------------10-10------------------------|
D|-----------------------------------------6--------8-----------|
A|-----------------------------------------6--------8-----------|
E|-----------------------------------------4--------6-----------|

     We can't go on and on         Never
e|--------------------------------------------------------------|
B|--9-9-11-11--------9-9-9-9-11-11------------------------------|
G|------------10-10----------------10-10------------------------|
D|-----------------------------------------6--------8-----------|
A|-----------------------------------------6--------8-----------|
E|-----------------------------------------4--------6-----------|

     We can't go on and on         Never
e|--------------------------------------------------------------|
B|--9-9-11-11--------9-9-9-9-11-11------------------------------|
G|------------10-10----------------10-10------------------------|
D|-----------------------------------------6--------8-----------|
A|-----------------------------------------6--------8-----------|
E|-----------------------------------------4--------6-----------|

  Oh oh woah                           Never
e|--------------------------------------------------------------|
B|--9-9-11-11--------9-9-9-9-11-11------------------------------|
G|------------10-10----------------10-10------------------------|
D|-----------------------------------------6--------8-----------|
A|-----------------------------------------6--------8-----------|
E|-----------------------------------------4--------6-----------|

    Oh oh woah                           Never
e|--------------------------------------------------------------|
B|--9-9-11-11--------9-9-9-9-11-11------------------------------|
G|------------10-10----------------10-10------------------------|
D|-----------------------------------------6--------8-----------|
A|-----------------------------------------6--------8-----------|
E|-----------------------------------------4--------6-----------|

     We can't go on and on         Never
e|--------------------------------------------------------------|
B|--9-9-11-11--------9-9-9-9-11-11------------------------------|
G|------------10-10----------------10-10------------------------|
D|-----------------------------------------6--------8-----------|
A|-----------------------------------------6--------8-----------|
E|-----------------------------------------4--------6-----------|

     We can't go on and on         Never
e|--------------------------------------------------------------|
B|--9-9-11-11--------9-9-9-9-11-11------------------------------|
G|------------10-10----------------10-10------------------------|
D|-----------------------------------------6--------8-----------|
A|-----------------------------------------6--------8-----------|
E|-----------------------------------------4--------6-----------|

The song fades out with that, if you want to do a live ending, just finish on the Bb.

I recommend that you listen to the song to get the strum patterns for the power chords down. 


Enjoy Nancy and the rest of Heart!

| /  slide up
| \  slide down
| h  hammer-on
| p  pull-off
| ~  vibrato
| +  harmonic
| x  Mute note
==========================================================
Suggest correction
Give kudos to tab author, rate the tab!
1 2 3 4 5
comments
print report bad tab
2 comments total.
0 reply
cwiggs 10 wrote on June 17 2011, 10:36 pm

Hey 'Alex's Disciple', you did a great job and all but during the Verse's there's a rythme guitar playing..do you know how to play that as well or not?

0 reply
Alex's Disciple 421 wrote on February 27 2012, 11:26 pm

Sorry it has been so long in response. The verse part is listed above. It is mostly the same as the interlude. The entire song is really just F#, G# and Bb

guest
You may want to rate the tab now too:
select rating
Wanna post a correction for this tab? Suggest correction