Oops, an error
Loading. Please wait.

Straight On bass

version 1
version 1

Whole song

Interactive

by Heart
9,252 views 24 this week
no commentswrite comment
1 2 3 4 5
x 4
add to favorites
×
Save as Personal and add changes to this tab that will be seen only by you. Learn more ›
×
You can save this tab as Personal to edit and correct it or add notes. All changes will be seen only by you. Learn more »
launch autoscroll
font size
0
reset
guitar tuner
backing track
0:00
0:00
edit
Autoscroll
slow
fast
+/-
esc
set tempo
stop
Author
Difficulty
Heart - Straight On, 1978 off the Dog & Butterfly Album

Steve Fossen plays a lot of variations so hear it this

Intro
|----------------7(p)6----6---------------|
|---9--7---7--9---------7------7-9--------|
|--------9------------------9-------------|
|-7---------------------------------7-----|

|---------------------------------------|
|-9-7---7-9--------7--------------------|
|-----9------7(h)9---9-7----------------|
|------------------------10-9-7---------|

|------------16-14------------------------|
|-9-7---7-9--------16-14------------------|
|-----9------------------17-16-14(s)------|
|-----------------------------------------|

|--------------11-9-7---------------|
|----9-7---7-9----------7-----------|
|--------9------------9-------------|
|-7---------------------------------|

Verse 1
|--------------------------------------------|
|-9-7---7-9-7---7----------7-----------------|
|-----9-------9---10-7-10----10-7------------|
|--------------------------------------------|

|---------------------------9-7-9---7-9-7------------|
|---------------------------------9-------9-7--------|
|-10-9-7-10-9----7-10-----7--------------------------|
|-------------10------10-----------------------------|

|---------------------------------------------------------------------|
|---9-7---7-9-7---7----------7----------------------------------------|
|10-----9-------9----10-7-10---10-7-10-9-7-10-9----7-10----7----------|
|-----------------------------------------------10------10------------|

|-9-7-9-7-7---7-9-----------------|
|-----------9---------------------|
|---------------------------------|
|---------------------------------|

Chorus 1
|------------------------------------------------|
|------------------7---------------------7-------|
|--------7-5-5(h)7---9-7-------7-5-5(h)7---------|
|--7-7-7-----------------7-7-7-------------------|

|-------------------------------------------|
|---------------------7--------7-7-7--------|
|-9-7-------7-5-5(h)7---5(h)7---------------|
|-----7-7-7---------------------------------|

|-----------------------------------------------------------------|
|-----------------------------------------------------------------|
|--------------------------------------------------9-9-9-9-9------|
|-3-3-3-0-3(b)3-3-3-3-2-2-2-0-2(b)2-2-2--7-7-7-7-7----------------|

Verse 2
|---------------------------------------------------------------------|
|---------------------------5-----------------5--------5--------------|
|---------------------5(h)7---5(h)7-----5(h)7----5(h)7----7-5-7-7-----|
|-7-7-7-7-5-3-0-5-3-0-----------------3-------------------------------|

|-9-7-9-----7-9-7----------------------------------------|
|-------7-9-------9-7---7-9-7---7-----------7------------|
|---------------------9-------9---10-7-7-10--------------|
|--------------------------------------------------------|

|--------------------------------9-7-9-7-7-7-7-7------------|
|-----------------------------------------------------------|
|-10-7-10-9-7-10-9----7-10----7-----------------------------|
|------------------10------10-------------------------------|

Chorus 2
|----------------------------------------------|
|-------------7-----------------7--------------|
|-----9-7-5-9---9-7-----9-7-5-9---9-7----------|
|-7-7---------------7-7------------------------|

|-------------------------------------------------------------------|
|-----------7-9-7---7-7---------------------------------------------|
|---9-7-5-9-------9-----10-7----------------------------------------|
|-7--------------------------0-3-3-3-3-0-3-3-3-0-2-2-2-2-0-2-2-2----|

Intro
|------------------------------------------|
|-4-2---------4-----5---7-7-7-5-7----------|
|-----5-4-2-2---2-3---3-----------2--------|
|------------------------------------------|

Guitar lead
|-------------------------------------------|
|-9----7-9---9-7-9-10---10-9-8-7------------|
|---10--------------------------------------|
|----------7----------8-----------5---------|

|---------------------------------------------------------------------|
|-8-7-6-5-5-5-5-5-5-5-4-4-4-4-4-4-------------------------------------|
|----------------------------------0-4-4-4--------2-4-----------------|
|-------------------------------------------0-2-4---------------------|

|--------------------------------------------|
|--6-----------7-9-7-------------------------|
|7---7-5-5(h)7---------10---7----------------|
|-------------------------------7------------|

Chorus 3
|-------------------------------------------|
|---------------7-9-7-9----7----------------|
|---9-7-5-5(h)7---------10---9-7------------|
|-7------------------------------7----------|

|-------------------------------------------------|
|-------------------7-7-9-7-----------------------|
|-------9-7-5-7(h)9---------10-9----7-10----------|
|-7-7-7--------------------------10---------------|

|-------------------------------------------------------------------------|
|-------------------------------------------------------------------------|
|-------------------------------------------------------------------------|
|-3-0-3-0-3-3-3-0-3-0-3-3-2-2-2-0-1-2-2-2-0-2-3-3-3-0-2-3-3-3-2-2-2-0-2-2-|

|-------------------4-2-------------2--------------2-2-4-2-4------------|
|-4-2---------4---------4-2---2(h)4---4-2---2(h)4------------4-2--------|
|-----5-4-2-2---2-5---------2-------------2-----------------------------|
|-----------------------------------------------------------------------|

|-------4-2---2-4-2----------------|
|-----2-----4-------5-2----2-------|
|-5-5--------------------5---------|
|----------------------------------|

|-------------------------------------------------------------------------|
|-------------------------------------------------------------------------|
|-------------------------------------------------------------------------|
|-3-3-3-3-3-3-3-3-3-3-3-3-3-3-2-2-2-0-1-2-2-2-3-3-3-0-2-3-3-3-2-2-2-0-1-2-|

|-------------------|
|-----4-2-----------|
|---------5-4-2-----|
|-2-2---------------|

outro
|---------2-4-------------------------2-4-7-6-4---4--|
|-----2-4---------2-4-4-2-------2-2-4-----------7----|
|-2-2---------2-2---------5-2-2----------------------|
|----------------------------------------------------|

|-------2---4-7-6-4---4--------2----4-11-9----------------|
|---4-4---4---------7------4-4---4---------12-------------|
|-2---------------------2---------------------------------|
|---------------------------------------------------------|

|---4-------2-----------2-----------4---2----2---------------------------|
|-7-----2-4---4-2---2-4---4-2---2-4---4----4---4-----2-2-2-0---2-2-2-0---|
|-----2-----------2-----------2------------------2-2---------2-----------|
|------------------------------------------------------------------------|

Breakdown
------9-9-7-----7---9-9-7-------7-9-9-7-----------------|
---9----------9---9-----------9-------------------------|
--------------------------------------------------------|
-7----------7-------------7-7---------------------------|

 fades out after some repeating
Suggest correction
Creating personal tab
Creating personal tab
You can edit any tab online and save it as your Personal.

You can edit, replace or remove any tab part or add personal notes – all changes will be seen only by you.

Personal tabs can be accessed anytime from any device, even offline.
Learn more »
comments
print report bad tab
guest
You may want to rate the tab now too:
select rating
Wanna post a correction for this tab? Suggest correction