Oops, an error
Loading. Please wait.

Wild Child bass

version 1
version 1

Whole song

Interactive

by Heart
645 views 1 this week
no commentswrite comment
1 2 3 4 5
1 last vote to show rating
add to favorites
×
Save as Personal and add changes to this tab that will be seen only by you. Learn more ›
×
You can save this tab as Personal to edit and correct it or add notes. All changes will be seen only by you. Learn more »
launch autoscroll
font size
0
reset
guitar tuner
edit
Autoscroll
slow
fast
+/-
esc
set tempo
stop
Author
Difficulty
Heart - Wild Child, off Brigade Album in 1990
"Live Album"

tuneing G,D,A,E


 1 Intro
|---------------------------|
|---------------------------|
|---------------------------|
|-3~------------------------|
*repeat this about 50 times.

 2
|---------------------------|
|---------------------------|
|-2~------------------------|
|---------------------------|
*repeat this about 25 times.

1 about 25 times
2
1 about 60 times

Guitar comes in...
 2 about 30 times
 1 about 30 times

Verse
1 about 16 times
2 about 14 times
1 about 16 times
|-----------------------------------|
|--2--------------------------------|
|-------0---------------------------|
|-----------------------------------|

Chorus
|----------------------------------------------------|
|----------------------------------------------------|
|-2------2--------2-------2--------------------------|
|---3-5------3--5---3--5----3-5-5-5-5-5-5------------|

Verse
Chorus
During guitar lead repeat verse
Verse

than play Chorus above and than this at end
|-------------------------------------------|
|-------------------------------------------|
|-5--5--------------------------------------|
|-------5-----------------------------------|

Repeat chorus until the end
|-------------------------------------------|
|-------------------------------------------|
|-2-2---------------------------------------|
|-----3-3--5--5-5---------------------------|

            
            
Suggest correction
Creating personal tab
Creating personal tab
You can edit any tab online and save it as your Personal.

You can edit, replace or remove any tab part or add personal notes – all changes will be seen only by you.

Personal tabs can be accessed anytime from any device, even offline.
Learn more »
Give kudos to tab author, rate the tab!
1 2 3 4 5
comments
print report bad tab
guest
You may want to rate the tab now too:
select rating
Wanna post a correction for this tab? Suggest correction