Oops, an error
Loading. Please wait.

City In Exile Tab

3,045 views 1 this week
3 commentsread comments
1 2 3 4 5
2 more votes to show rating
add to favorites
launch autoscroll
font size
0
reset
how to read this tab
guitar tuner
Autoscroll
slow
fast
+/-
esc
set tempo
stop
Help us to improve Ultimate-Guitar.com Take our survey!
×
Author
Difficulty
Tuning
intermediate
A# F A# D# G C
Heart Of A Coward - City In Exile  (http://www.myspace.com/heartofacoward)

Tabbed by Jonathan Salas
Email: jonoxcore@hotmail.com
Youtube: http://www.youtube.com/user/ToothGrinderr
Facebook: www.facebook.com/jjonoooo

THIS IS MY FIRST TAB SO GO EASY (gosh ive already screwed up, i wrote this with notepad
UG chopped it down, so the ▼(down arrow) means that the particular riff is
underneath,,SORRY!)!  IF YOU NEED HELP, USE MY VIDEO OR PM ME VIA 
http://www.youtube.com/user/ToothGrinderr

This tab is written as per my cover on YouTube
   subscribe if you enjoy it :)). This probably isn't 100% correct so feel free to PM me 
via Youtube (i dont use UG much).
I haven't bothered to put in whether or not to palm mute notes but it shouldnt be too
just listen to the song.


Tuning: Drop A#  (A# F A# D# G C)

Intro which is basically a whole lot of chugging and stuff, you can figure out the 
yourself :)

|--------------------------------|
|--------------------------------|
|--------------------------------| x4  (last cycle has a pickslide at the
|--------------------------------|     end)
|--------------------------------|
|--0-0-0--0-0-0-0-0--0-0--0-0-0--|


|----------------------------------------------------------------------------|
|----------------------------------------------------------------------------|
|----------------------------------------------------------------------------|
|--0-0-0-0--0-0-0-0-0--0-0--0-0-0-0---0-0-0-0--1/7--0-0-0-0-0--0-0--0-0-0-0--|x2
|--0-0-0-0--0-0-0-0-0--0-0--0-0-0-0---0-0-0-0--1/7--0-0-0-0-0--0-0--0-0-0-0--|
|--0-0-0-0--0-0-0-0-0--0-0--0-0-0-0---0-0-0-0-------0-0-0-0-0--0-0--0-0-0-0--|
           ▼              ▼              ▼             ▼

                |----|
   (Last Cycle  |----|
   ends with    |----|
   a bend)      |----|
                |----|
                |-1^-|

|----------------------------------------------------------------------------|
|----------------------------------------------------------------------------|
|----------------------------------------------------------------------------|
|------------------------------------------------------------------------8-7-|x5
|------8-7-5-4-578-------8-7-5-4-578-------12-10-8-7810-------12-10----------|
|-0-000-0-0-0-0-----0-000-0-0-0-0-----8-888--8--8-8------7-777--7---8-888-8--|
           ▼              ▼              ▼             ▼

   (3rd cycle   |------|
   ends with    |------|
   this)        |------|
                |---10-|
                |-78---|
                |------|

|-----------------------|
|-----------------------|
|-----------------------|
|--3-1-0--3-1-0--3-1----|
|--3-1-0--3-1-0--3-1----|
|--3-1-0--3-1-0--3-1-0--|

|-------------------------------------------------------------|  Riff
|-------------------------------------------------------------|  cont'd
|-------------------------------------------------------------|  underneath
|--1-0-1--1-0-1--1-0-1--1-0-1--1-0-1--1-0-1--1-0-1------------|
|--1-0-1--1-0-1--1-0-1--1-0-1--1-0-1--1-0-1--1-0-1--65-9868---|
|----0-1----0-1----0-1----0-1----0-1----0-1----0-1----0----0--|
           ▼              ▼              ▼             ▼

|---------------------------------------------|  Play
|---------------------------------------------|  entire
|---------------------------------------------|  riff
|--1-0-1--1-0-1--1-0-1------------------------|  x2
|--1-0-1--1-0-1--1-0-1------------------------|
|----0-1----0-1----0-1--8-7-0-3-5-0-8-0-3-3'--|
                                          PH

|-------------------------------------------------------------|  Riff
|-------------------------------------------------------------|  cont'd
|-------------------------------------------------------------|  underneath
|--1-0-1--1-0-1--1-0-1--1-0-1--1-0-1--1-0-1--1-0-1------------|
|--1-0-1--1-0-1--1-0-1--1-0-1--1-0-1--1-0-1--1-0-1--65-9868---|
|----0-1----0-1----0-1----0-1----0-1----0-1----0-1----0----0--|
           ▼              ▼              ▼             ▼

|-------------------------------------|  Play
|-------------------------------------|  entire
|-------------------------------------|  riff
|--1-0-1--1-0-1--1-0-1----------------| x2
|--1-0-1--1-0-1--1-0-1---8-7-5-4-5-4--|
|----0-1----0-1----0-1----------------|

HIT-THE-DECK!

|--------------------------------------------------------|
|--------------------------------------------------------|
|--------------------------------------------------------|
|--0-0--0-0-0-0-0----0-0--0-0-0-0-0-0~-------------------|
|--0-0--0-0-0-0-0----0-0--0-0-0-0-0-0~---7-8-7-8-10-8-7--|
|--0-0--0-0-0-0-0----0-0--0-0-0-0-0-0~--0-0-0-0-0--------|
                   (let it ring open^)

|-----------------0--------------------------------------|
|-----------------0--------------------------------------|
|-----------------0--------------------------------------|
|--0-0--0-0-0-0-0-0----0-0--0-0-0-0-------------------0--|
|--0-0--0-0-0-0-0-0----0-0--0-0-0-0------8-7-5-4-5-4--0--|
|--0-0--0-0-0-0-0-0----0-0--0-0-0-0-0-0---------------0--|

|--------8------|     |--------8-----8---8---8---8--|
|------6---6----|     |------6---6-----6---6---6----|
|----9-------9--|     |----9-------9----------------|
|--7------------| x4  |--7--------------------------|  x3
|---------------|     |-----------------------------|
|---------------|     |-----------------------------|

|---------------------------|
|---------------------------|
|---------------------------|
|--0-0-0-0-0-0-0-0-0-0-0-0--|
|--0-0-0-0-0-0-0-0-0-0-0-0--|
|--0-0-0-0-0-0-0-0-0-0-0-0--|

|--------8-----8---8---8---8--|      |----------|
|------6---6-----6---6---6----|      |----------|
|----9-------9----------------|      |----------|
|--7--------------------------|  x7  |--0----0--|
|-----------------------------|      |--0----0--|
|-----------------------------|      |--0----0--|

|--------------------------------|
|--------------------------------|
|--------------------------------|
|--0-0-0-0-0-0-------------------|
|--0-0-0-0-0-0-------------------|
|--1-1-1-1-1-1-------------------|
|--------------------------------|
|--------------------------------|
|--------------------------------|
|--0-0--0-0-0-0--0-0--0-0-0-0----|
|--0-0--0-0-0-0--0-0--0-0-0-0----|
|--0-0--0-0-0-0--1-1--1-1-1-1----|
   Rght Spkr.    Lft Spkr.

BREAKDOWWWN (timings screwed, have to figure it out for yourself.  its from 3:14-3:34 on 
video)

|--------------------5-5-5-5----------------------|  Riff
|--------------------5-5-5-5----------------------|  cont'd
|--------------------2-2-2-2----------------------|  underneath
|--0-------------0-0-----------0-------------1/7--|
|--0--xabillion--0-0-----------0--xabillion--1/7--|
|--1-------------0-0-----------1---more-----------|
           ▼              ▼              ▼

|---------------------5-5-5-5----------------|
|---------------------5-5-5-5----------------|
|---------------------2-2-2-2----------------|
|---0-------------0-0-----------0------------|
|---0--xsomemore--0-0-----------0--xmore to--|
|---1-------------0-0-----------1--end it----|


Sorry in advance if this bit is wrong (3:34 onwards in my video if you need any help)

|--------------------------------------------------------------------------|
|--------------------------------------------------------------------------|
|--------------------------------------------------------------------------|
|-0-0--0-0-0-0-0-0--0-0-0-0---------1-1-1-1--1-1--1-1-1-1--1-1-1-1-1-1-1-1-|x2
|-0-0--0-0-0-0-0-0--0-0-0-0---------1-1-1-1--1-1--1-1-1-1--1-1-1-1-1-1-1-1-|
|-0-0--0-0-0-0-0-0--0-0-0-0----1^---1-1-1----1----1-1-1-1--1-1-1-1-1-1-1-1-|
                               (bend)
  End  |-----|
  with |-----|
  this |-----|
       |--0--|
       |--0--|
       |--0--|
Suggest correction
Give kudos to tab author, rate the tab!
1 2 3 4 5
comments
print report bad tab
3 comments total.
0 reply
ToothGrinderr 52 Apr 18, 2010 02:18 PM

sorry guys, ****ed up the tuning.. derrrrrr the G# is meant to be just a G

0 reply
allyATW 103 Apr 29, 2010 06:34 PM

Good tab man, obviusly a few lead bits missing. but well ****ing done man !! need this to help me get some of the faster riffs down!!

easy xo

0 reply
allyATW 103 Aug 10, 2010 02:30 PM

Nice tab broseph

mostly correct!!

guest
You may want to rate the tab now too:
select rating
Wanna post a correction for this tab? Suggest correction