Oops, an error
Loading. Please wait.

Skeletal Ii Arise chords

67 views 3 this week
no commentswrite comment
1 2 3 4 5
2 more votes to show rating
add to favorites
×
Save as Personal and add changes to this tab that will be seen only by you. Learn more ›
×
You can save this tab as Personal to edit and correct it or add notes. All changes will be seen only by you. Learn more »
launch autoscroll
font size
0
reset
transpose
0
reset
display chords
guitar tuner
edit
Autoscroll
slow
fast
+/-
esc
set tempo
stop
Strumming
There is no strumming pattern for this song yet. and get +5 IQ
Heart Of A Coward - Skeletal II: Arise

Tuning: Powerchords or Barré use Drop B, for normal chords use normal B tuning without dropping the E string



[Instrumental] 
C#|-3-3-3-3-3-3-3-3-3-3--2-2-2-2-2-2-2-2-2-2--0-0-0-0-0-0-0-0-0-0--3-3-3-3-3-3-3-3-3-3--2-2-2-2-2-2-2-2-2-2|
G#|--------------------------------------------------------------------------------------------------------|
 E|--------------------------------------------------------------------------------------------------------|
 B|--------------------------------------------------------------------------------------------------------|
F#|--------------------------------------------------------------------------------------------------------|
 B|-0--------------------------------------------------------------0---------------------------------------|


[Verse]
  Em        D         C       G         D
C#|-0-|     |-2-|     |-3-|   |-3-/7|   |-2--3-2|
G#|-0-|     |-3-|     |-3-|   |-3---|   |-3-----|
 E|-0-|     |-2-|     |-5-|   |-0---|   |-2-----|
 B|-2-|     |-0-|     |-5-|   |-0---|   |-0-----|
F#|-2-|     |-0-|     |-3-|   |-2---|   |-0-----|
 C|-0-|     |-x-|     |-x-|   |-3---|   |-x-----|
  Here we   make our  stand

Em          D      C    G      D
 With heads buried deep in the sand

Em    D        C    G  D
 This cross is ours to bear

Em   D       C G    D
 But hope is always there


[Chorus]
Em         D    C
 When will life

G       D
Feed my desire


Em  D     C
 We arise

G       D
Walk in this fire

Em         D    C
 When will life

G       D
Feed my desire

Em   D     C
 We arise


                   Em                   D                        C                    G               F#    x2
       C#|---------------------------------------------------------------------------------------------------|
       G#|---------------------------------------------------------------------------------------------------|
        E|---------------------------------------------------------------------------------------------------|
        B|-2-2-2-2-2-2-2-2-2-2--0-0-0-0-0-0-0-0-0-0--10-10-10-10-10-10-10-10-10-10--5-5-5-5-5---5--4-4-4---4-|
       F#|-2-2-2-2-2-2-2-2-2-2--0-0-0-0-0-0-0-0-0-0--10-10-10-10-10-10-10-10-10-10--5-5-5-5-5---5--4-4-4---4-|
        B|-2-2-2-2-2-2-2-2-2-2--0-0-0-0-0-0-0-0-0-0--10-10-10-10-10-10-10-10-10-10--5-5-5-5-5-9-5--4-4-4-5-4-|
Walk in this fire

            Em                     D                          C                 G             F#
C#|-------------------------------------------------------------------------------------------------|
G#|-------------------------------------------------------------------------------------------------|
 E|-------------------------------------------------------------------------------------------------|
 B|-2-2-2-2-2-2-2-2-2-2--0-0-0-0-0-0-0-0-0-0--10-10-10-10-10-10-10-10-10-10--5-5-5-5-5-5--4-4-4-4-4-| 
F#|-2-2-2-2-2-2-2-2-2-2--0-0-0-0-0-0-0-0-0-0--10-10-10-10-10-10-10-10-10-10--5-5-5-5-5-5--4-4-4-4-4-|
 B|-2-2-2-2-2-2-2-2-2-2--0-0-0-0-0-0-0-0-0-0--10-10-10-10-10-10-10-10-10-10--5-5-5-5-5-5--4-4-4-4-4-|
        When will        life                                                Feed my    desire

Em    D    C
  We arise
G            F#
Walk in this fire cos' we

[Bridge]
    C                D 
C#|----|           |---|
G#|----|           |---|
 E|----|           |---|
 B|-10-|           |-0-|
F#|-10-|           |-0-|
 B|-10-|           |-0-|
   wont fall at the last step that we take

    B                        G        F#
C#----|                    |---|    |---|
G#|---|                    |---|    |---|
 E|---|                    |---|    |---|
 B|-9-|                    |-5-|    |-4-|
F#|-9-|                    |-5-|    |-4-|
 B|-9-|                    |-5-|    |-4-|
Our bodies wont break We'll end this today
     C
Live like it's our last
      D                      B            G          F#   G
It's within our grasp as the final breath enters our lungs

[Chorus]
Em         D    C    G       D
 When will life      feed my desire
Em    D  C  G            Em
 Rise up,   walk in this fire



[Instrumental]
(E-Guitar in the background and in the outro) 
 C#|-15--17/19-\17-15--17/19-17-14-15--19-17-19/20-19--14-15-14-12-| (repeat)
 G#|---------------------------------------------------------------|
  E|---------------------------------------------------------------|
  B|---------------------------------------------------------------|
 F#|---------------------------------------------------------------|
  B|---------------------------------------------------------------|

[Instrumental]
(Piano part after guitar playing (minute ~04:02)) 
 C#|---------------------------------------------------------------|
 G#|--------------12---------------------------12------------------|
  E|----11-12--12----11--------------11-12--12----11-12------------|
  B|-14-----------------12-14--------------------------------------|
 F#|---------------------------------------------------------------|
  B|---------------------------------------------------------------|







            
            
Suggest correction
Creating personal tab
Creating personal tab
You can edit any tab online and save it as your Personal.

You can edit, replace or remove any tab part or add personal notes – all changes will be seen only by you.

Personal tabs can be accessed anytime from any device, even offline.
Learn more »
Give kudos to tab author, rate the tab!
1 2 3 4 5
comments
print report bad tab
guest
You may want to rate the tab now too:
select rating
Wanna post a correction for this tab? Suggest correction