Oops, an error
Loading. Please wait.

Skin And Bone chords

487 views 3 this week
1 commentread comment
1 2 3 4 5
x 4
add to favorites
×
Save as Personal and add changes to this tab that will be seen only by you. Learn more ›
×
You can save this tab as Personal to edit and correct it or add notes. All changes will be seen only by you. Learn more »
launch autoscroll
font size
0
reset
transpose
0
reset
simplify chords
display chords
guitar tuner
edit
Autoscroll
slow
fast
+/-
esc
set tempo
stop
Author
Difficulty
Strumming
There is no strumming pattern for this song yet. and get +5 IQ
[Intro]
 

         e|------------|
         B|------------|
A E G    G|-----2-4p2--|   
         D|-2h4-------4|
         A|------------|
         E|------------|


            D    Dsus2
         e|-2-2--0-0-------|
         B|-3-3--3-3-------|
A E G    G|-2-2--2-2-------|   
         D|----------------|
         A|----------------|
         E|----------------|


         e|------------|
         B|------------|
A E G    G|-----2-4p2--|   
         D|-2h4-------4|
         A|------------|
         E|------------|


         e|---------------------|
         B|---------------------|
A E G    G|-4p2-2-----2-2-------|   
         D|-------2h4-----4-2---|
         A|-------------------0-|
         E|---------------------|


[Verse 1]
                                              
A                      E             G             e|------------|
Spend my time here as a child,                     B|------------|
                                                   G|-----2-4p2--|   
                                                   D|-2h4-------4|
                                                   A|------------|
                                                   E|------------| 
              

A                               E                    G               D    Dsus2    
and now I'm passing through here and it's  All coming back again.    e|-2-2--0-0-------|
                                                                     B|-3-3--3-3-------|
                                                                     G|-2-2--2-2-------|   
                                                                     D|----------------|
                                                                     A|----------------|
                                                                     E|----------------|



A                      E             G             e|------------|
Dilapidated buildings down on Main                 B|------------|
                                                   G|-----2-4p2--|   
                                                   D|-2h4-------4|
                                                   A|------------|
                                                   E|------------| 

A                               E                    G               D    Dsus2    
This small town is coming down, and It's hard for me to stay. And,   



[Chorus]

A      E        G                 D       A         E              G              D
oh, I, I find after all this time, I am back here filled with all these memories. 
A             E        G         D             A                E             
Bittersweet, my own skin and bone. This rust has worn through tearing up 
G                    D
Beneath the seams. 


[Verse 2]

A                      E             G      e|------------|
Driving down Salem Avenue.                  B|------------|
                                            G|-----2-4p2--|   
                                            D|-2h4-------4|
                                            A|------------|
                                            E|------------|

A                               E                    G               D    Dsus2 
It's all so familiar now, but so many things Have changed. 


A                      E             G                  e|------------|
And the rain came down all around.                      B|------------|
                                                        G|-----2-4p2--|   
                                                        D|-2h4-------4|
                                                        A|------------|
                                                        E|------------|

A                               E                    G               D    Dsus2
Washed away the industry, washed it to the sea. And, 


[Chorus]

A      E        G                 D       A         E              G              D
oh, I, I find after all this time, I am back here filled with all these memories. 
A             E        G         D             A                E             
Bittersweet, my own skin and bone. This rust has worn through tearing up 
G                    D
Beneath the seams.  


A   E                  G               D    Dsus2   A           E                 
And, oh, I wanted to be in Akron when I was young. Oh, I wanted to be in 
G               D    Dsus2
Akron when I was young. 
A   E   G  D    Dsus2
Ooh, ooh, ooh.


[Solo]

e|-------------------------|--------------------|------------------------------------------------------------|
B|-------------------------|--------------------|-0h2--3/5-5-5-3-2--2h3p2------------------------------------|
G|--4p2-2-2------4p2-------|-4p2-2-2------2-2-2-|-------------------------2----------------------------------|
D|-----------2h4-----4-2---|----------2h4-------|---------------------------2/5-5-4--4-2---2-----------------|
A|-----------------------0-|--------------------|-----------------------------------------5---5-2-0----------|
E|-------------------------|--------------------|------------------------------------------------------------|

e|-------------------------|--------------------|------------------------------------------------------------|
B|-------------------------|--------------------|-0h2--3/5-5-5-3-2--2h3p2------------------------------------|
G|--4p2-2-2------4p2-------|-4p2-2-2------2-2-2-|-------------------------4-2--------------------------------|
D|-----------2h4-----4-2---|----------2h4-------|------------------------------2/4/5-5-5-5-2h4-2--2----------|
A|-----------------------0-|--------------------|------------------------------------------------5--5-2-0----|
E|-------------------------|--------------------|------------------------------------------------------------|


[Outro]

A E G D
A E G D

************************************

| h   Hammer-on
| p   Pull-off

************************************
Suggest correction
Creating personal tab
Creating personal tab
You can edit any tab online and save it as your Personal.

You can edit, replace or remove any tab part or add personal notes – all changes will be seen only by you.

Personal tabs can be accessed anytime from any device, even offline.
Learn more »
comments
print report bad tab
1 comment total.
0 reply
Zparkz 123 Jul 15, 2016 12:43 PM

Please Rate!

guest
You may want to rate the tab now too:
select rating
Wanna post a correction for this tab? Suggest correction