Oops, an error
Loading. Please wait.

Fade Away tab

22 views 1 this week
no commentswrite comment
1 2 3 4 5
3 more votes to show rating
add to favorites
×
Save as Personal and add changes to this tab that will be seen only by you. Learn more ›
×
You can save this tab as Personal to edit and correct it or add notes. All changes will be seen only by you. Learn more »
launch autoscroll
font size
0
reset
how to read this tab
guitar tuner
edit
Autoscroll
slow
fast
+/-
esc
set tempo
stop
[Intro]

e|---------------------------------------------------------------------------|
B|---------------------------------------------------------------------------|
G|-------0----------------------0------7---5----------------------------------|
D|-----7---7---10-------7-----7---7------0---0----7---------------------------|
A|---8-------8--------8-----8-------8-----------8-----------------------------|
D|-0----------------------0-----------0---------------------------------------| x4

e|---------------------------------------------------------------------------|
B|---------------------------------------------------------------------------|
G|-------------------------------------------------------0-------------------|
D|-----7-----7-----7-----7-----7-----7-----7-----7-----7---------------------|
A|---8-----8-----8-----8-----8-----8-----8-----8-----8-----------------------|
D|-0-----0-----0-----0-----0-----0-----0-----0-----0-------------------------|

e|---------------------------------------------------------------------------|
B|---------------------------------------------------------------------------|
G|---------------------------------------------------------------------------|
D|-----7-----7-----7-----7-----7-----7-----7-----7---------------------------|
A|---8-----8-----8-----8-----8-----8-----8-----8-----------------------------|
D|-0-----0-----0-----0-----0-----0-----0-----0-----0-------------------------|


[Pre-Chorus]
 PM----------------------------------|
e|---------------------------------------------------------------------------|
B|---------------------------------------------------------------------------|
G|---------------------------------------------------------------------------|
D|-8--8--8--8--8--8--8--8--10--10--10--10--10--10--10------------------------|
A|-8--8--8--8--8--8--8--8--10--10--10--10--10--10--10------------------------|
D|-8--8--8--8--8--8--8--8--10--10--10--10--10--10--10------------------------|


[Chorus]
     PM------------------|
e|---------------------------------------------------------------------------|
B|---------------------------------------------------------------------------|
G|---------------------------------------------------------------------------|
D|-0----7----8-----7h8-----3--2----------------------------------------------|\
A|-0--8---0--8--0--7h8--0--3--2----------------------------------------------| \
D|-0------0--8--0--7h8--0--3--2----------------------------------------------|  |
                                                                                x4
    PM------------|                                                             |
e|---------------------------------------------------------------------------| /
B|---------------------------------------------------------------------------|/
G|-----------------9---10-10--12--12-----------------------------------------|
D|-0----7----8-----x---x--x---x---x------------------------------------------|
A|-0--8---0--8--0--7-s-8--8-s-10--10-----------------------------------------|
D|-0------0--8--0------------------------------------------------------------|


[Verse]

e|---------------------------------------------------------------------------|
B|---------------------------------------------------------------------------|
G|-------------------------------------------------------0-------------------|
D|-----7-----7-----7-----7-----7-----7-----7-----7-----7---------------------|
A|---8-----8-----8-----8-----8-----8-----8-----8-----8-----------------------|
D|-0-----0-----0-----0-----0-----0-----0-----0-----0-------------------------|

e|---------------------------------------------------------------------------|
B|---------------------------------------------------------------------------|
G|-------------------------------------------------------0-------------------|
D|-----7-----7-----7-----7-----7-----7-----7-----7-----7---10----------------|
A|---8-----8-----8-----8-----8-----8-----8-----8-----8-----------------------|
D|-0-----0-----0-----0-----0-----0-----0-----0-----0-------------------------|

e|---------------------------------------------------------------------------|
B|---------------------------------------------------------------------------|
G|-------------------------------------------------------0-------------------|
D|-----7-----7-----7-----7-----7-----7-----7-----7-----7---10----------------|
A|---8-----8-----8-----8-----8-----8-----8-----8-----8-----------------------|
D|-0-----0-----0-----0-----0-----0-----0-----0-----0-------------------------|

e|---------------------------------------------------------------------------|
B|---------------------------------------------------------------------------|
G|---------------------------------------------------------------------------|
D|-----7-----7-----7-----7-----7-----7-----7-----7---------------------------|
A|---8-----8-----8-----8-----8-----8-----8-----8-----------------------------|
D|-0-----0-----0-----0-----0-----0-----0-----0-----0-------------------------|


[Pre-Chorus]
 PM----------------------------------|
e|---------------------------------------------------------------------------|
B|---------------------------------------------------------------------------|
G|---------------------------------------------------------------------------|
D|-8--8--8--8--8--8--8--8--10--10--10--10--10--10--10------------------------|
A|-8--8--8--8--8--8--8--8--10--10--10--10--10--10--10------------------------|
D|-8--8--8--8--8--8--8--8--10--10--10--10--10--10--10------------------------|


[Chorus]
     PM------------------|
e|---------------------------------------------------------------------------|
B|---------------------------------------------------------------------------|
G|---------------------------------------------------------------------------|
D|-0----7----8-----7h8-----3--2----------------------------------------------|\
A|-0--8---0--8--0--7h8--0--3--2----------------------------------------------| \
D|-0------0--8--0--7h8--0--3--2----------------------------------------------|  |
                                                                                x4
      PM------------------|                                                     |
e|---------------------------------------------------------------------------| /
B|---------------------------------------------------------------------------|/
G|-----------------9---10-10--12--12-----------------------------------------|
D|-0----7----8-----x---x--x---x---x------------------------------------------|
A|-0--8---0--8--0--7-s-8--8-s-10--10-----------------------------------------|
D|-0------0--8--0------------------------------------------------------------|


[Verse]

e|---------------------------------------------------------------------------|
B|---------------------------------------------------------------------------|
G|-------------------------------------------------------0-------------------|
D|-----7-----7-----7-----7-----7-----7-----7-----7-----7---------------------|
A|---8-----8-----8-----8-----8-----8-----8-----8-----8-----------------------|
D|-0-----0-----0-----0-----0-----0-----0-----0-----0-------------------------|

e|---------------------------------------------------------------------------|
B|---------------------------------------------------------------------------|
G|-------------------------------------------------------0-------------------|
D|-----7-----7-----7-----7-----7-----7-----7-----7-----7---10----------------|
A|---8-----8-----8-----8-----8-----8-----8-----8-----8-----------------------|
D|-0-----0-----0-----0-----0-----0-----0-----0-----0-------------------------|

e|---------------------------------------------------------------------------|
B|---------------------------------------------------------------------------|
G|-------------------------------------------------------0-------------------|
D|-----7-----7-----7-----7-----7-----7-----7-----7-----7---10----------------|
A|---8-----8-----8-----8-----8-----8-----8-----8-----8-----------------------|
D|-0-----0-----0-----0-----0-----0-----0-----0-----0-------------------------|

e|---------------------------------------------------------------------------|
B|---------------------------------------------------------------------------|
G|---------------------------------------------------------------------------|
D|-----7-----7-----7-----7-----7-----7-----7-----7---------------------------|
A|---8-----8-----8-----8-----8-----8-----8-----8-----------------------------|
D|-0-----0-----0-----0-----0-----0-----0-----0-----0-------------------------|

[Pre-Chorus]
 PM----------------------------------|
e|---------------------------------------------------------------------------|
B|---------------------------------------------------------------------------|
G|---------------------------------------------------------------------------|
D|-8--8--8--8--8--8--8--8--10--10--10--10--10--10--10------------------------|
A|-8--8--8--8--8--8--8--8--10--10--10--10--10--10--10------------------------|
D|-8--8--8--8--8--8--8--8--10--10--10--10--10--10--10------------------------|


[Chorus]
  PM---------------------|
e|---------------------------------------------------------------------------|
B|---------------------------------------------------------------------------|
G|---------------------------------------------------------------------------|
D|-0----7----8-----7h8-----3--2----------------------------------------------|
A|-0--8---0--8--0--7h8--0--3--2----------------------------------------------|\
D|-0------0--8--0--7h8--0--3--2----------------------------------------------| \
                                                                               x4
e|---------------------------------------------------------------------------| /
B|---------------------------------------------------------------------------|/
G|-----------------9---10-10--12--12-----------------------------------------|
D|-0----7----8-----x---x--x---x---x------------------------------------------|
A|-0--8---0--8--0--7-s-8--8-s-10--10-----------------------------------------|
D|-0------0--8--0------------------------------------------------------------|


[Bridge]
  PM----------------------------------------------------|
e|---------------------------------------------------------------------------|
B|---------------------------------------------------------------------------|
G|---------------------------------------------------------------------------|
D|-0-------------------------------------------------------------------------| x2
A|-0-0-0-0-0-0-0-0-0-0-0-0-0-0-0-0-0-0-0-0-0-0-0-0-0-0-0---------------------|
D|-0-0-0-0-0-0-0-0-0-0-0-0-0-0-0-0-0-0-0-0-0-0-0-0-0-0-0---------------------|
    PM-----|                                            PM-------|
e|---------------------------------------------------------------------------|
B|---------------------------------------------------------------------------|
G|---------------------------------------------------------------------------|
D|-0----7----8----8--8---8--8---8--10--10--10--10---5-----1--1--1------------| x4
A|-0--8---0--8----8--8---8--8---8--10--10--10--10---5-----1--1--1------------|
D|-0------0--8----8--8---8--8---8--10--10--10--10---5-----1--1--1------------|

e|---------------------------------------------------------------------------|
B|---------------------------------------------------------------------------|
G|-------------------------------------------------------0-------------------|
D|-----7-----7-----7-----7-----7-----7-----7-----7-----7---------------------| x2
A|---8-----8-----8-----8-----8-----8-----8-----8-----8-----------------------|
D|-0-----0-----0-----0-----0-----0-----0-----0-----0-------------------------|


[Pre-Chorus]

e|---------------------------------------------------------------------------|
B|---------------------------------------------------------------------------|
G|---------------------------------------------------------------------------|
D|-8--8--8--8--8--8--8--8--10--10--10--10--10--10--10------------------------|
A|-8--8--8--8--8--8--8--8--10--10--10--10--10--10--10------------------------|
D|-8--8--8--8--8--8--8--8--10--10--10--10--10--10--10------------------------|


[Chorus]
    PM--------------------|
e|---------------------------------------------------------------------------|
B|---------------------------------------------------------------------------|
G|---------------------------------------------------------------------------|
D|-0----7----8-----7h8-----3--2----------------------------------------------|\
A|-0--8---0--8--0--7h8--0--3--2----------------------------------------------| \
D|-0------0--8--0--7h8--0--3--2----------------------------------------------|  \
                                                                                x4
    PM-----------|                                                              /
e|---------------------------------------------------------------------------| /
B|---------------------------------------------------------------------------|/
G|-----------------9---10-10--12--12-----------------------------------------|
D|-0----7----8-----x---x--x---x---x------------------------------------------|
A|-0--8---0--8--0--7-s-8--8-s-10--10-----------------------------------------|
D|-0------0--8--0------------------------------------------------------------|

************************************

|PM   Palm mute
| s   Slide
| x   Dead note
| h   Hammer-on

************************************
Suggest correction
Creating personal tab
Creating personal tab
You can edit any tab online and save it as your Personal.

You can edit, replace or remove any tab part or add personal notes – all changes will be seen only by you.

Personal tabs can be accessed anytime from any device, even offline.
Learn more »
Give kudos to tab author, rate the tab!
1 2 3 4 5
comments
print report bad tab
guest
You may want to rate the tab now too:
select rating
Wanna post a correction for this tab? Suggest correction