Oops, an error
Loading. Please wait.

Truth And Bone Tab

755 views 3 this week
no commentswrite comment
1 2 3 4 5
please rate
add to favorites
launch autoscroll
font size
0
reset
how to read this tab
guitar tuner
Tab Pro tools
  • play this tab
  • loop segment
  • change instrument
  • show fretboard
  • metronome
×
Best way to learn
"Truth And Bone"
Autoscroll
slow
fast
+/-
esc
set tempo
stop
Contributor
-------------------------------------------------------------------------------
                             TRUTH & BONE - Heather Nova
-------------------------------------------------------------------------------
Tabbed by: ianjnixon
Email: ianjnixon@hotmail.co.uk

Tuning: Standard

I tabbed this from the live version on her Wonderlust album. The chord tab is spot on, 
just elaborates a little on it.

Intro

   Dsus2                    x4
e|-------0-----0-----0-----------|
B|-----3---3-----3-----3---------|
G|---2-------2-----2-----2-------|
D|-0-----------------------------|
A|-------------------------------|
E|-------------------------------|

Verse

   Dsus2         A             Bm            G                 D
e|-------0-------------0-------------2-------------3-----------------2-----2-----2-----|
B|-----3---3---------2---2---------3---3---------0---0-------------3---3-----3-----3---|
G|---2-------2-----2-------2-----4-------4-------------0---------2-------2-----2-----2-|
D|-0-------------2-----------------------------0---------------0-----------------------|
A|-----------------------------2-------------------------------------------------------|
E|-------------------------------------------3-----------------------------------------|
       Sometimes I can feel you              breathing into me
   My mouth is   full of secrets       that I'm too afraid to  tell

   Dsus2            A              Bm          G             D
e|-------0----------------0--------------2-----------3-------------2-----2-----2-----|
B|-----3---3------------2---2----------3---3-------0---0---------3---3-----3-----3---|
G|---2-------2--------2-------2------4-------4-----------0-----2-------2-----2-----2-|
D|-0----------------2----------------------------0-----------0-----------------------|
A|---------------------------------2-------------------------------------------------|
E|---------------------------------------------3-------------------------------------|
   With these hands I can feel them            Tugging at my sleeve    I move
   My body's        full of longing        for you to know me well     I move

Bridge

   A                        Em                       D
e|-------0-----2-----2------------0-----0-----0------------2-----2-----2-----2-----2-----|
B|-----2---2-----2-----2--------0---0-----0-----0--------3---3-----3-----3-----3-----3---|
G|---2-------2-----2-----2----0-------0-----0-----0----2-------2-----2-----2-----2-----2-|
D|-2------------------------2------------------------0-----------------------------------|
A|---------------------------------------------------------------------------------------|
E|---------------------------------------------------------------------------------------|
   through the day          in the rythm that I've   known      I've got this

   A                                    Em                       G
e|-------0-----0-----0-----0-----0------------0-----0-----0------------3-----3-----3-----|
B|-----2---2-----2-----2-----2-----2--------0---0-----0-----0--------0---0-----0-----0---|
G|---2-------2-----2-----2-----2-----2----0-------0-----0-----0------------0-----0-----0-|
D|-2------------------------------------2--------------------------0---------------------|
A|---------------------------------------------------------------------------------------|
E|---------------------------------------------------------------3-----------------------|
   crazy dream                                   stripping down  to truth and

Chorus

   D     D   D     A  A   A     Em Em  Em    G  G  G         G        D
e|-2-----2---2-----0--0---0-----0--0---0-----3--3--3---------3---    -2-|
B|-3-----3---3-----2--2---2-----0--0---0-----0--0--0---------0---    -3-|
G|-2-----2---2-----2--2---2-----0--0---0-----0--0--0---------0---    -2-|
D|-0-----0---0-----2--2---2-----2--2---2-----0--0--0---------0---    -0-|
A|-----------------0--0---0-----2--2---2-----2--2--2---------2---    ---|
E|-----------------0--0---0-----0--0---0-----3--3--3---------3--- x3 ---|
   bone  all of it    all of it    all of it       stripped  down
         all of it    all of it    all of it    to truth     and      bone

Repeat from Verse

Alternate Verse

   D                     A                     Bm
e|-2---------------------0---------------------2----------------------------------|
B|-3---------------------2---------------------3----------------------------------|
G|-2---------------------2---------------------4----------------------------------|
D|-0---------------------2---------------------4----------------------------------|
A|-----------------------0---------------------2----------------------------------|
E|-----------------------0---------------------2----------------------------------|
   I think of sinking in way over my shoulders let the water, the water
   need you to cut through to where I'm hidden I'm awkward and I'm
   two stars for         arms like Orion I could breathe in I could
   If I could only       lose myself I would   lose my...

   G                      D
e|-3-----------------    -2--------|
B|-0-----------------    -3--------|
G|-0-----------------    -2--------|
D|-0-----------------    -0--------|
A|-2-----------------    ----------|
E|-3----------------- x4 ----------|
   take me and I          I move...
   too polite I want
   breathe out
   ...self in you


To bridge (play as chords)

Chorus x 4

| /  slide up
| \  slide down
| h  hammer-on
| p  pull-off
| ~  vibrato
| +  harmonic
| x  Mute note
===============================================================================
comments
We did not receive enough feedback on this tab! Please rate:
print report bad tab
1 2 3 4 5
I want to post or [tab]
guest
You may want to rate the tab now too:
select rating
Please do not post tabs as comments. Select "correction" instead!