Oops, an error
Loading. Please wait.

Why Did I Decide To Stay Tab

1,293 views 1 this week
no commentswrite comment
1 2 3 4 5
please rate
add to favorites
launch autoscroll
font size
0
reset
how to read this tab
guitar tuner
Autoscroll
slow
fast
+/-
esc
set tempo
stop
Help us to improve Ultimate-Guitar.com Take our survey!
×
Author
Difficulty
song      : why did i decide to stay
artist    : heatmiser
tabbed by : oneshotnothing

tuned down one step


INTRO

e-|----------------|----------------|
b-|----------------|----------------|
g-|8-8-8-8-8-8-8-8-|8-8-8-8-8-8-8-8-|
d-|8-8-8-8-8-8-8-8-|8-8-8-8-8-8-8-8-|
a-|6-6-6-6-6-6-6-6-|6-6-6-6-6-6-6-6-|
E-|----------------|----------------|
   ^ ' ^ ' ^ ' ^ ' |^ ' ^ ' ^ ' ^ ' |
   1   2   3   4    1   2   3   4    


VERSE
e-|----------------|----------------|----------------|----------------|
b-|----------------|----------------|----------------|----------------|
g-|--------6-6-6-6-|----------------|8-8-8-8-8-8-8-8-|8-8-8-8-8-8-8-8-|
d-|4-4-4-4-6-6-6-6-|6-6-6-6-5-5-5-5-|8-8-8-8-8-8-8-8-|8-8-8-8-8-8-8-8-|
a-|4-4-4-4-4-4-4-4-|6-6-6-6-5-5-5-5-|6-6-6-6-6-6-6-6-|6-6-6-6-6-6-6-6-|
E-|2-2-2-2---------|4-4-4-4-3-3-3-3-|----------------|----------------|
   ^ ' ^ ' ^ ' ^ ' |^ ' ^ ' ^ ' ^ ' |^ ' ^ ' ^ ' ^ ' |^ ' ^ ' ^ ' ^ ' |
   1   2   3   4    1   2   3   4    1   2   3   4    1   2   3   4    

e-|----------------|----------------|----------------|----------------|
b-|----------------|----------------|----------------|----------------|
g-|--------6-6-6-6-|----------------|8-8-8-8-8-8-8-8-|8-8-8-8-8-8-8-8-|
d-|4-4-4-4-6-6-6-6-|6-6-6-6-5-5-5-5-|8-8-8-8-8-8-8-8-|8-8-8-8-8-8-8-8-|
a-|4-4-4-4-4-4-4-4-|6-6-6-6-5-5-5-5-|6-6-6-6-6-6-6-6-|6-6-6-6-6-6-6-6-|
E-|2-2-2-2---------|4-4-4-4-3-3-3-3-|----------------|----------------|
   ^ ' ^ ' ^ ' ^ ' |^ ' ^ ' ^ ' ^ ' |^ ' ^ ' ^ ' ^ ' |^ ' ^ ' ^ ' ^ ' |
   1   2   3   4    1   2   3   4    1   2   3   4    1   2   3   4    

e-|----------------|----------------|----------------|----------------|
b-|----------------|----------------|----------------|----------------|
g-|--------6-6-6-6-|----------------|--------6-6-6-6-|----------------|
d-|4-4-4-4-6-6-6-6-|6-6-6-6-5-5-5-5-|4-4-4-4-6-6-6-6-|6-6-6-6-5-5-5-5-|
a-|4-4-4-4-4-4-4-4-|6-6-6-6-5-5-5-5-|4-4-4-4-4-4-4-4-|6-6-6-6-5-5-5-5-|
E-|2-2-2-2---------|4-4-4-4-3-3-3-3-|2-2-2-2---------|4-4-4-4-3-3-3-3-|
   ^ ' ^ ' ^ ' ^ ' |^ ' ^ ' ^ ' ^ ' |^ ' ^ ' ^ ' ^ ' |^ ' ^ ' ^ ' ^ ' |
   1   2   3   4    1   2   3   4    1   2   3   4    1   2   3   4    


CHORUS

e-|----------------|----------------|----------------|
b-|----------------|----------------|0-0-0-0---------|
g-|8-8-8-8---------|8-8-8-8---------|1-1-1-1-4-4-4-4-|
d-|8-8-8-8-4-4-4-4-|8-8-8-8-4-4-4-4-|2-2-2-2-5-5-5-5-|
a-|6-6-6-6-4-4-4-4-|6-6-6-6-4-4-4-4-|2-2-2-2-5-5-5-5-|
E-|--------2-2-2-2-|--------2-2-2-2-|0-0-0-0-3-3-3-3-|
   ^ ' ^ ' ^ ' ^ ' |^ ' ^ ' ^ ' ^ ' |^ ' ^ ' ^ ' ^ ' |
   1   2   3   4    1   2   3   4    1   2   3   4    

e-|----------------|----------------|----------------|----------------|
b-|----------------|----------------|0-0-0-0---------|----------------|
g-|--------8-8-8-8-|--------8-8-8-8-|1-1-1-1-4-4-4-4-|----------------|
d-|4-4-4-4-8-8-8-8-|4-4-4-4-8-8-8-8-|2-2-2-2-5-5-5-5-|4---------------|
a-|4-4-4-4-6-6-6-6-|4-4-4-4-6-6-6-6-|2-2-2-2-5-5-5-5-|4---------------|
E-|2-2-2-2---------|2-2-2-2---------|0-0-0-0-3-3-3-3-|2---------------|
   ^ ' ^ ' ^ ' ^ ' |^ ' ^ ' ^ ' ^ ' |^ ' ^ ' ^ ' ^ ' |^ ' ^ ' ^ ' ^ ' |
   1   2   3   4    1   2   3   4    1   2   3   4    1   2   3   4    


extra measure before bridge

e-|----------------|
b-|----------------|
g-|----------------|
d-|----------------|
a-|----------------|
E-|----------------|
   ^ ' ^ ' ^ ' ^ ' |
   1   2   3   4         

BRIDGE - 2x

e-|----------------|----------------|----------------|----------------|
b-|----------------|----------------|----------------|----------------|
g-|8-8-8-8-3-3-3-3-|6-6-6-6---------|8-8-8-8-3-3-3-3-|6-6-6-6---------|
d-|8-8-8-8-4-4-4-4-|7-7-7-7-9-9-9-9-|8-8-8-8-4-4-4-4-|7-7-7-7-9-9-9-9-|
a-|6-6-6-6-4-4-4-4-|7-7-7-7-9-9-9-9-|6-6-6-6-4-4-4-4-|7-7-7-7-9-9-9-9-|
E-|--------2-2-2-2-|5-5-5-5-7-7-7-7-|--------2-2-2-2-|5-5-5-5-7-7-7-7-|
   ^ ' ^ ' ^ ' ^ ' |^ ' ^ ' ^ ' ^ ' |^ ' ^ ' ^ ' ^ ' |^ ' ^ ' ^ ' ^ ' |
   1   2   3   4    1   2   3   4    1   2   3   4    1   2   3   4    


http://www.myspace.com/heatmiserband/
Suggest correction
Give kudos to tab author, rate the tab!
1 2 3 4 5
comments
print report bad tab
guest
You may want to rate the tab now too:
select rating
Wanna post a correction for this tab? Suggest correction