Oops, an error
Loading. Please wait.

Height Of The Fighting Bass Tab

195 views 1 this week
no commentswrite comment
1 2 3 4 5
please rate
add to favorites
launch autoscroll
font size
0
reset
guitar tuner
Autoscroll
slow
fast
+/-
esc
set tempo
stop
Help us to improve Ultimate-Guitar.com Take our survey!
×
Difficulty
novice
G|--------------|--------------|
D|:-------------|-------------:|
A|:-------5---5-|-7---7-------:|
E|--7---7-------|-------5--5---|x4
  Heat!
  War!               (They sent you to do it, do it)
  Sweat!
  Law!               (If you can't move it, prove it)

G|--------------|-------------|------------|--------------|
D|:-------------|-------------|------------|-------------:|
A|:-------------|-------------|------------|-------------:|
E|--3---3-3---3-|-3---3-3--3--|-5---5-5--5-|-5---5-5--5---|x4
At the height of the fighting (he-la-hu) x4

G|--------------|--------------|
D|:-------------|-------------:|
A|:-------5---5-|-7---7-------:|
E|--7---7-------|-------5--5---|x8
  Heat!
  War!               (If you don't like it, fight it)
  Sweat!
  Law!               (If you can't take it, fake it)
  Heat!
  War!               (They sent you to do it, do it)
  Sweat!
  Law!               (If you can't move it, prove it)

G|--------------|-------------|------------|--------------|
D|:-------------|-------------|------------|-------------:|
A|:-------------|-------------|------------|-------------:|
E|--3---3-3---3-|-3---3-3--3--|-5---5-5--5-|-5---5-5--5---|x4
At the height of the fighting (he-la-hu) x4

(Bass is silent through the next 8 bars)

  Heat!
  War!
  Sweat!
  Law!

G|--------------|--------------|
D|:-------------|-------------:|
A|:-------------|-------------:|
E|--7---7-5---7-|-7--7-5--5----|x4
  Heat!
  War!
  Sweat!
  Law!

G|--------------|--------------|
D|:-------------|-------------:|
A|:-------6---6-|-8---8-------:|
E|--8---8-------|-------6--6---|x4
  Heat!
  War!               (They sent you to do it, do it)
  Sweat!
  Law!               (If you can't move it, prove it)

G|--------------|-------------|------------|--------------|
D|:-------------|-------------|------------|-------------:|
A|:-------------|-------------|------------|-------------:|
E|--4---4-4---4-|-4---4-4--4--|-6---6-6--6-|-6---6-6--6---|x4
At the height of the fighting (he-la-hu) x4
Suggest correction
Give kudos to tab author, rate the tab!
1 2 3 4 5
comments
print report bad tab
guest
You may want to rate the tab now too:
select rating
Please do not post tabs as comments. Select "correction" instead!