Oops, an error
Loading. Please wait.

Atom And Evil tab

version 2
version 2

Whole song

Interactive

3,782 views 1 this week
no commentswrite comment
1 2 3 4 5
x 5
add to favorites
×
Save as Personal and add changes to this tab that will be seen only by you. Learn more ›
×
You can save this tab as Personal to edit and correct it or add notes. All changes will be seen only by you. Learn more »
launch autoscroll
font size
0
reset
how to read this tab
guitar tuner
edit
Autoscroll
slow
fast
+/-
esc
set tempo
stop
Author
Tabbed by Brian Wolfe (IncrediBeast@hotmail.com)

Tuning: Half-step down

10/14/09:  I found a mistake in the solo and fixed it.

10/17/09: Just reworded some of the notes I left in the solo, nothing big.

|-----------------------------------------------|
|-----------------------------------------------|
|-----------------------------------------------|
|-----7--5--4---------------7--5--4-------------|
|-2---5--3--2--4--3----2----5--3--2--4--3--5----|
|-0------------2--1----0-------------2--1--3----|
                                                              X2
|-----------------------------------------------|
|-----------------------------------------------|
|-----------------------------------------------|
|-----7--5--4---------------7--6--4-------------|
|-2---5--3--2--4--3----2----5--4--3--5--4--3----|
|-0------------2--1----0-------------3--2--1----|

|-----------------|
|-----------------|
|-----------------|    X2
|-----8--7--6-----|
|--7--6--5--4-----|
|--0--------------|

|--------------------------------------------|
|--------------------------------------------|
|--------------------------------------------|
|--------------------------------------------|
|-(2)(2)(2)-4-5-4-(2)(2)(2)(2)(2)-4-5-7--5---|
|-(0)(0)(0)-2-3-2-(0)(0)(0)(0)(0)-2-3-5--3---|

|-----------------|
|-----------------|
|-----------------|    X2
|-----8--7--6-----|
|--7--6--5--4-----|
|--0--------------|

|-------------------------------------------|
|-------------------------------------------|
|-------------------------------------------|
|-------------------------------------------|
|-(2)(2)(2)-4-5-4-(2)(2)(2)(2)(2)-4-5-7-----|
|-(0)(0)(0)-2-3-2-(0)(0)(0)(0)(0)-2-3-5-----|

|-----------0--0-----|
|-----------0--0-----|
|-----------0--0-----|
|-----------2--2-----|
|--5-4-2-4--2--2-----|
|--3-2-0-2--0--0-----|

The next part has two guitar parts in it:

Guitar 1:

|---------------------------|
|---------------------------|
|---------------------------|
|--9----7-------------------|   X8
|----10----9--10--7--9------|
|-----------------------10--|

Guitar 2:

|-----------------|
|-----------------|
|--9----7----5----|
|--9----7----5----|   X2
|--7----5----3----|
|-----------------|

Now, back to this part:

|-----------------|
|-----------------|
|-----------------|    X2
|-----8--7--6-----|
|--7--6--5--4-----|
|--0--------------|

|-------------------------------------------|
|-------------------------------------------|
|-------------------------------------------|
|-------------------------------------------|
|-(2)(2)(2)-4-5-4-(2)(2)(2)(2)(2)-4-5-7-----|
|-(0)(0)(0)-2-3-2-(0)(0)(0)(0)(0)-2-3-5-----|

|-----------------|
|-----------------|
|-----------------|
|-----------------|
|--5-4-2-4--2-----|
|--3-2-0-2--0-----|

Solo:

The lead guitar in the solo doesn't come in right on the first beat.  Listen to it and
see what I mean - the first note you hear on the beat is actually part of the backing 
for the solo, and isn't the soloist.

|------------------------------------------------------|
|------------------------------------------------------|
|--------------------------------------10--9-----------|
|-----7--9--9^h--------7--10--10^f--------------10--7--|
|--7----------------7----------------------------------|
|------------------------------------------------------|

** ^f^r means do a full bend and release it.  Listen to the song and you'll know what I mean.

I know it sounds like he hits the 5 on the E string 3 times in this part, but if you 
the track way down you can hear that it's just an auditory illusion, and it's really just 
on the previous note.

7^^^^f means SLOWLY bend the string up.  Listen to the track.

The [7^f^r] means to do a pinch harmonic.  Bend it up and release it.

|----------5------------------------------------------------------------|
|--8^h--------8--5------------------------------------------------------|
|----------------------7^f^r-5-7^^^^f--5--7^h^r--5----7--[7^f^r]--5-----|
|--------------------------------------------------7-----------------7--|
|-----------------------------------------------------------------------|
|-----------------------------------------------------------------------|

10f^r means keep the note bent and hit it again, then release the bend.

|-------8-------8----10^f--10f^r--8--10--8-----------------------------|
|--8h10---10------10-----------------------10--8-----------------------|
|-------------------------------------------------9\7--5-----7/9--7----|
|---------------------------------------------------------7----------9-|
|----------------------------------------------------------------------|
|----------------------------------------------------------------------|

|---------------------------------17--19--20--19--17h20p17------19--17--|
|--20^f----20f^r--17--20^f--20^f----------------------------h20---------|
|-----------------------------------------------------------------------|
|-----------------------------------------------------------------------|
|-----------------------------------------------------------------------|
|-----------------------------------------------------------------------|

|---------------------------------------------------------------------------|
|20--17---17--20----17------------------------------------------------------|
|-------19-------19----19--17--(15-17 trill)--20^f--20f^r20-20-20-20-20-22^f|
|---------------------------------------------------------------------------|
|---------------------------------------------------------------------------|
|---------------------------------------------------------------------------|

Guitar 1:

|---------------------------|
|---------------------------|
|---------------------------|
|--9----7-------------------|   X16
|----10----9--10--7--9------|
|-----------------------10--|

Guitar 2:

|-----------------|
|-----------------|
|--9----7----5----|
|--9----7----5----|   X4
|--7----5----3----|

Now this:

|-----------0--0-----|
|-----------0--0-----|
|-----------0--0-----|
|-----------2--2-----|
|--5-4-2-4--2--2-----|
|--3-2-0-2--0--0-----|


Now just do this riff until it fades out at the end:

|-----------------------------------------------|
|-----------------------------------------------|
|-----------------------------------------------|
|-----7--5--4---------------7--5--4-------------|
|-2---5--3--2--4--3----2----5--3--2--4--3--5----|
|-0------------2--1----0-------------2--1--3----|
                                                              X2
|-----------------------------------------------|
|-----------------------------------------------|
|-----------------------------------------------|
|-----7--5--4---------------7--6--4-------------|
|-2---5--3--2--4--3----2----5--4--3--5--4--3----|
|-0------------2--1----0-------------3--2--1----|


In the last few seconds of the song, Iommi also does this as it fades out:

|--12----14----15------|
|--15^f--17&f--18^f----|
|----------------------|
|----------------------|
|----------------------|
|----------------------|
Suggest correction
Creating personal tab
Creating personal tab
You can edit any tab online and save it as your Personal.

You can edit, replace or remove any tab part or add personal notes – all changes will be seen only by you.

Personal tabs can be accessed anytime from any device, even offline.
Learn more »
comments
print report bad tab
guest
You may want to rate the tab now too:
select rating
Wanna post a correction for this tab? Suggest correction