Oops, an error
Loading. Please wait.

Fear tab

version 1
version 1

Whole song

Interactive

5,626 views 6 this week
2 commentsread comments
1 2 3 4 5
x 6
add to favorites
×
Save as Personal and add changes to this tab that will be seen only by you. Learn more ›
×
You can save this tab as Personal to edit and correct it or add notes. All changes will be seen only by you. Learn more »
launch autoscroll
font size
0
reset
how to read this tab
guitar tuner
edit
Autoscroll
slow
fast
+/-
esc
set tempo
stop
Author
Tabbed by Brian Wolfe (IncrediBeast@hotmail.com)

Tuning: Half-Step Down

Numbers in parentheses means to palm mute that note.
\ = Slide down
/ = Slide up
^f = Full bend
^h = Half bend
h = Hammer on
p = Pull off

Update October 17th, 2009

Sorry guys, it turns out I had a couple of parts to the song incorrect.  I've fixed them 
I can say this tab is now mostly perfect.

Each 7-8-7-10 is like this:

7 h 8 p 7 h 10

The rest of the notes are picked.

|---------------------------------------------------------|
|---------------------------------------------------------|
|---------------------------------------------------------|
|----------------------------------------------------9----| X3
|---7-8-7----7-----7--10--7-8----7-8-7----7-----7--8---8--|
|-0-------10----0--------------0-------10----0------------|

|---------------------------------------------------------------|
|---------------------------------------------------------------|
|---------------------------------------------------------------|
|---------------------------------------------------------------|
|---7-8-7----7-----7--10--7-8----7-8-7----7---------10--------9-|
|-0-------10----0--------------0-------10----(5)(7)-8-----(7)-7-|

---------------------|
---------------------|
---------------------|
---------------------|
--------3--------5---|
----(5)-5----(3)-3---|


RIFF 1

|---------------------------------------------------------|
|---------------------------------------------------------|
|---------------------------------------------------------|
|----------------------------------------------------9----| X7
|---7-8-7----7-----7--10--7-8----7-8-7----7-----7--8---8--|
|-0-------10----0--------------0-------10----0------------|


RIFF 2

|-------------------------------------------------|
|-------------------------------------------------|
|-9----------------7---------------9--------------|
|-7----------------5---------------7--------------|
|---(0)(0)(0)(0)(0)-(0)(0)(0)(0)(0)--(0)(0)(0)----|
|-------------------------------------------------|

|-------------------------------------------------------|
|-------------------------------------------------------|
|5--------------------7---------------------------------|
|3--------------------5-------0h2p0---0-2---------------|
|--(0)(0)(0}(0)(0)-------(0)--------3-----3-------------|
|-------------------------------------------3-----------|

|-------------------------------------------------|
|-------------------------------------------------|
|-9----------------7---------------9--------------|
|-7----------------5---------------7--------------|
|---(0)(0)(0)(0)(0)-(0)(0)(0)(0)(0)--(0)(0)(0)----|
|-------------------------------------------------|


|-------------------------------------------------------|
|-------------------------------------------------------|
|5--------------------7---------------------------------|
|3--------------------5------------2--4--5---4--2-------|
|--(0)(0)(0}(0)(0)-------(0)(0)----0--2--3---2--0-------|
|-------------------------------------------------------|

|-------------------------------------------------|
|-------------------------------------------------|
|-9----------------7---------------9--------------|
|-7----------------5---------------7--------------|
|---(0)(0)(0)(0)(0)-(0)(0)(0)(0)(0)--(0)(0)(0)----|
|-------------------------------------------------|

|-------------------------------------------------------|
|-------------------------------------------------------|
|5--------------------7---------------------------------|
|3--------------------5-------0h2p0---0-2---------------|
|--(0)(0)(0}(0)(0)-------(0)--------3-----3-------------|
|-------------------------------------------3-----------|


|-------------------------------------------------|
|-------------------------------------------------|
|-9----------------7---------------9--------------|
|-7----------------5---------------7--------------|
|---(0)(0)(0)(0)(0)-(0)(0)(0)(0)(0)--(0)(0)(0)----|
|-------------------------------------------------|

|--------------------------------------------------------------|
|--------------------------------------------------------------|
|5--------------------7-------------------7---5-4-2-5-3-2------|
|3--------------------5-------------------5---3-2-0-3-2-0-5----|
|--(0)(0)(0}(0)(0)-------(0)(0)(0)(0)(0)---(0)---------------3-|
|--------------------------------------------------------------|


RIFF 3


|--------------------------------------------------------------|
|--------------------------------------------------------------|
|--------------------------------------------------------------|
|-10-----9----12---8-----------------10---9--------------------|
|-8------7----10---6------8----7-8---8----7---9--10---12---9---|
|-------------------------6----5-6------------7--8----10---7---|

|---------------------------------------------------------|
|---------------------------------------------------------|
|---------------------------------------------------------|
|----------------------------------------------------9----| X1
|---7-8-7----7-----7--10--7-8----7-8-7----7-----7--8---8--|
|-0-------10----0--------------0-------10----0------------|

|---------------------------------------------------------------|
|---------------------------------------------------------------|
|---------------------------------------------------------------|
|---------------------------------------------------------------|
|---7-8-7----7-----7--10--7-8----7-8-7----7---------10--------9-|
|-0-------10----0--------------0-------10----(5)(7)-8-----(7)-7-|

---------------------|
---------------------|
---------------------|
---------------------|
--------3--------5---|
----(5)-5----(3)-3---|

|---------------------------------------------------------|
|---------------------------------------------------------|
|---------------------------------------------------------|
|----------------------------------------------------9----| X4
|---7-8-7----7-----7--10--7-8----7-8-7----7-----7--8---8--|
|-0-------10----0--------------0-------10----0------------|


|-----REPEAT RIFFS 2 AND 3-----|

BRIDGE

|------------------------------------------------|
|------------------------------------------------|
|------------------------------------------------|   X2
|------2-------/7--6---------2-------/6--5---4---|
|----2---------/5--4-------2---------/4--3---2---|
|-0--------0------------0--------0---------------|

SOLO

|---------10----------------10------------------------------------------|
|-----------------------------------------------------------------------|
|---11h12----12-11----11h12----12-11---11-12-14-12--11h12p11------------|
|-------------------------------------------------------------14--14----|
|-----------------------------------------------------------------------|
|-----------------------------------------------------------------------|

|-----------------------------------------------------------------------|
|-----------------------------------------------------------------------|
|-----------------------------------------------------------------------|
|----14-12--------------------------------------------------------------|
|-14-------14-13-12----10h12--10h12--[10-h-12-p-10-\-9]--10--9----------|
|---------------------------------------------------------------10/12---|

The part in brackets is spaced out so it's easier to see what's going on.  It doesn't
anything other than that.

|--------10-------------------------10--------------------------------|
|---------------------------------------------------------------------|
|--11h12----12-11---11-12-14--11h12----12-11---11-12-14-12-11---------|
|-------------------------------------------------------------12/14---|
|---------------------------------------------------------------------|
|---------------------------------------------------------------------|

|---------------------------------------------------------------------------|
|---------------------------------------------------------------------------|
|------------------------------------------------------------12---14^f-14-12|
|-12^h----12^h--------------------------------------11/12--14---14----------|
|------14------14--13-12-10-12---10h12p10--9-10--12-------------------------|
|---------------------------------------------------------------------------|

THE STARS AFTER THE 15^F MEAN HIT THE STRING AGAIN WHILE IT'S STILL BENT

|----------------12--------------------------------------|
|-15^f-*-*-*--------15-12--------------------------------|
|-------------------------14^h-14-12---------------------|
|--------------------------------------------------------|
|--------------------------------------------------------|
|--------------------------------------------------------|

|-----------------------------------------------------------------|
|-----------------------------------------------------------------|
|-14h^-12---------------------------------------------------------|
|---------14--12--14----14--12-----14--12-------------------------|
|-------------------14---------14---------14-13-12-10-12-10-9-----|
|-------------------------------------------------------------12--|

|------------------------------------------------|
|------------------------------------------------|
|------------------------------------------------|
|--------------/7--6-----------------/6--5---4---|
|----2---------/5--4-------2---------/4--3---2---|
|-0----0---0------------0----0---0---------------|

|------------------------------------------------|
|------------------------------------------------|
|------------------------------------------------|
|------2-------/7--6---------2-------/6--5-------|
|----2---------/5--4-------2---------/4--3-------|
|-0--------0------------0--------0---------------|

|-----REPEAT RIFFS 2 AND 3-----|

|---------------------------------------------------------|
|---------------------------------------------------------|
|---------------------------------------------------------|
|----------------------------------------------------9----|
|---7-8-7----7-----7--10--7-8----7-8-7----7-----7--8---8--|
|-0-------10----0--------------0-------10----0------------|

|---------------------------------------------------------------|
|---------------------------------------------------------------|
|---------------------------------------------------------------|
|---------------------------------------------------------------|
|---7-8-7----7-----7--10--7-8----7-8-7----7---------10--------9-|
|-0-------10----0--------------0-------10----(5)(7)-8-----(7)-7-|

---------------------|
---------------------|
---------------------|
---------------------|
--------3--------5---|
----(5)-5----(3)-3---|


Now stomp on that harmonizer pedal!

|---------------------------------------------------------|
|---------------------------------------------------------|
|---------------------------------------------------------|
|----------------------------------------------------9----|
|---7-8-7----7-----7--10--7-8----7-8-7----7-----7--8---8--|
|-0-------10----0--------------0-------10----0------------|

|---------------------------------------------------------------|
|---------------------------------------------------------------|
|---------------------------------------------------------------|
|---------------------------------------------------------------|
|---7-8-7----7-----7--10--7-8----7-8-7----7---------10--------9-|
|-0-------10----0--------------0-------10----(5)(7)-8-----(7)-7-|

-----------------------|
-----------------------|
-----------------------|
-----------------------|
--------3--------5----2|
----(5)-5----(3)-3----0|

            
            
Suggest correction
Creating personal tab
Creating personal tab
You can edit any tab online and save it as your Personal.

You can edit, replace or remove any tab part or add personal notes – all changes will be seen only by you.

Personal tabs can be accessed anytime from any device, even offline.
Learn more »
comments
print report bad tab
2 comments total.
0 reply
megadeth1117 10 Jun 29, 2009 09:14 AM

Thanks for the great tab, I've been looking for this one

0 reply
CinderellaFan14 251 Apr 05, 2012 11:18 AM

Killer tab! Dio and Iommi make this album! Thanks so much! 5 stars!

guest
You may want to rate the tab now too:
select rating
Wanna post a correction for this tab? Suggest correction