Oops, an error
Loading. Please wait.

Follow The Tears Bass Tab

version 1
version 1

Whole song

Interactive

10 views 1 this week
no commentswrite comment
1 2 3 4 5
3 more votes to show rating
add to favorites
launch autoscroll
font size
0
reset
guitar tuner
Autoscroll
slow
fast
+/-
esc
set tempo
stop
Help us to improve Ultimate-Guitar.com Take our survey!
×
Author
Difficulty
Tuning
intermediate
D# G# C# F# A# D#
Title: Follow The Tears
Artist: Heaven & Hell
Album: The Devil You Know
Bassist: Geezer Butler
Composer: Geezer Butler / Ronnie James Dio / Tony Iommi
Tabbed By: FLBatista
Tunning: 1/2 step down (Bb,Eb,Ab,Db,Gb)


INTRO 2 (x2):

Gb|--------------------------|--------------------------|
Db|--------------------------|--------------------------|
Ab|------5-------5----6-5----|------5-------5---5---6-5-|
Eb|---------4------4------3--|---------4------4---4-----|
Bb|-3--3---------------------|-3--3---------------------|


MAIN RIFF (x2):

Gb|-------------------------------|--------------------------------|
Db|-------------------------------|--------------------------------|
Ab|-------------------------------|--------------------5---4-------|
Eb|-1----------3----------1---1h3-|-1----------1-----5---5---4-3h4-|
Bb|---3-3-3--3---3-3-3--3---3-----|---3-3-3--3---3-3---------------|


VERSE (Come lie on a bed...) (x2):

Gb|-------------------------------|-------------------------------|
Db|-------------------------------|-------------------------------|
Ab|-------------------------------|-------------------------------|
Eb|-1----------3----------1---1h3-|-1----------3----------1---1h3-|
Bb|---3-3-3--3---3-3-3--3---3-----|---3-3-3--3---3-3-3--3---3-----|

Gb|-------------------------------|--------------------------------|
Db|-------------------------------|--------------------------------|
Ab|-------------------------------|--------------------5---4-------|
Eb|-1----------3----------1---1h3-|-1----------3-----5---5---4-3h4-|
Bb|---3-3-3--3---3-3-3--3---3-----|---3-3-3--3---3-3---------------|


PRE-CHORUS (So if you...):

Gb|---------------------------|------------------------|
Db|---------------------------|------------------------|
Ab|---------------------------|------------------------|
Eb|-6---6-6--6---6-6--6-8-6-5-|-6---6-6--6---8---5--6--|
Bb|---------------------------|------------------------|


CHORUS (Follow the tears):

Gb|-------------------------|------------------------|
Db|-------------------------|------------------------|
Ab|-------------------------|------------------------|
Eb|------5---4---4-3-1-3-4--|------4---3---1---1-3-1-|
Bb|-3-----------------------|-3--------------3-------|

Gb|-------------------------|-----------------------|
Db|-------------------------|-----------------------|
Ab|-------------------------|-----------------------|
Eb|------5---4---4-3-1-3-4--|------4---3---1---6-5--|
Bb|-3-----------------------|-3--------------3------|


MAIN RIFF (x2)

Gb|-------------------------------|--------------------------------|
Db|-------------------------------|--------------------------------|
Ab|-------------------------------|--------------------5---4-------|
Eb|-1----------3----------1---1h3-|-1----------1-----5---5---4-3h4-|
Bb|---3-3-3--3---3-3-3--3---3-----|---3-3-3--3---3-3---------------|


VERSE (Don't drink...)(x2):

Gb|-------------------------------|-------------------------------|
Db|-------------------------------|-------------------------------|
Ab|-------------------------------|-------------------------------|
Eb|-1----------3----------1---1h3-|-1----------3----------1---1h3-|
Bb|---3-3-3--3---3-3-3--3---3-----|---3-3-3--3---3-3-3--3---3-----|

Gb|-------------------------------|--------------------------------|
Db|-------------------------------|--------------------------------|
Ab|-------------------------------|--------------------5---4-------|
Eb|-1----------3----------1---1h3-|-1----------3-----5---5---4-3h4-|
Bb|---3-3-3--3---3-3-3--3---3-----|---3-3-3--3---3-3---------------|


PRE-CHORUS (So if you...):

Gb|---------------------------|------------------------|
Db|---------------------------|------------------------|
Ab|---------------------------|------------------------|
Eb|-6---6-6--6---6-6--6-8-6-5-|-6---6-6--6---8---5--6--|
Bb|---------------------------|------------------------|


CHORUS (Follow the tears...):

Gb|-------------------------|------------------------|
Db|-------------------------|------------------------|
Ab|-------------------------|------------------------|
Eb|------5---4---4-3-1-3-4--|------4---3---1---1-3-1-|
Bb|-3-----------------------|-3--------------3-------|

Gb|-------------------------|-----------------------|
Db|-------------------------|-----------------------|
Ab|-------------------------|-----------------------|
Eb|------5---4---4-3-1-3-4--|------4---3---1---6-5--|
Bb|-3-----------------------|-3--------------3------|

Gb|-------------------------|------------------------|
Db|-------------------------|------------------------|
Ab|-------------------------|------------------------|
Eb|------5---4---4-3-1-3-4--|------4---3---1---1-3-1-|
Bb|-3-----------------------|-3--------------3-------|

Gb|-------------------------|---------------------------|
Db|-------------------------|---------------------------|
Ab|-------------------------|---------------5---4-------|
Eb|------5---4---4-3-1-3-4--|------4---3--5---5---4-3h4-|
Bb|-3-----------------------|-3-------------------------|


INTERLUDE (We'll be there...):

Gb|---------------------------14----|----------7--------7/9-----|
Db|----------------7---7--/14----14-|------5h7------5h7-----7-9-|
Ab|------5h7-----7---7--------------|-5-------------------------|
Eb|-5--------5----------------------|---------------------------|
Bb|---------------------------------|---------------------------|

Gb|-----------------------------|----------------7/9-7--/14p12-|
Db|----------------7/9-7----7---|------5h7-----7---------------|
Ab|------5h7-----7-------7----7-|-5--------5-------------------|
Eb|-5--------5------------------|------------------------------|
Bb|-----------------------------|------------------------------|

Gb|----------------------------|----------7-----7/9-7-----|
Db|----------------7---7/9-7---|------5h7-----7-------7-5-|
Ab|------5h7-----7---7-------7-|-5------------------------|
Eb|-5--------5-----------------|--------------------------|
Bb|----------------------------|--------------------------|

Gb|-------------------------|------------------------|
Db|-------------------------|------------------------|
Ab|-------------------------|------------------------|
Eb|-------------------------|------------------------|
Bb|-3---3---3---3---3-2-5-4-|-3---3---3---3---3-3-5--|


CHORUS RIFF (... air...):

Gb|-------------------------|------------------------|
Db|-------------------------|------------------------|
Ab|-------------------------|------------------------|
Eb|------5---4---4-3-1-3-4--|------4---3---1---1-3-1-|
Bb|-3-----------------------|-3--------------3-------|

Gb|-------------------------|-----------------------|
Db|-------------------------|-----------------------|
Ab|-------------------------|-----------------------|
Eb|------5---4---4-3-1-3-4--|------4---3---1---6-5--|
Bb|-3-----------------------|-3--------------3------|


MAIN RIFF (x2):

Gb|-------------------------------|--------------------------------|
Db|-------------------------------|--------------------------------|
Ab|-------------------------------|--------------------5---4-------|
Eb|-1----------3----------1---1h3-|-1----------1-----5---5---4-3h4-|
Bb|---3-3-3--3---3-3-3--3---3-----|---3-3-3--3---3-3---------------|


GUITAR SOLO (x2):

Gb|-------------------------------|-------------------------------|
Db|-------------------------------|-------------------------------|
Ab|-------------------------------|-------------------------------|
Eb|-1----------3----------1---1h3-|-1----------3----------1---1h3-|
Bb|---3-3-3--3---3-3-3--3---3-----|---3-3-3--3---3-3-3--3---3-----|

Gb|-------------------------------|--------------------------------|
Db|-------------------------------|--------------------------------|
Ab|-------------------------------|--------------------5---4-------|
Eb|-1----------3----------1---1h3-|-1----------3-----5---5---4-3h4-|
Bb|---3-3-3--3---3-3-3--3---3-----|---3-3-3--3---3-3---------------|


PRE-CHORUS (So if you...):

Gb|----------------------------|--------------------------|
Db|--------------------7/9-7-5-|-7-----------------7--/9--|
Ab|-------5h7------5h7---------|------5h7------5h7---7----|
Eb|-5---5-----5----------------|----------5---------------|
Bb|----------------------------|--------------------------|


Gb|---------------------------|------------------------|
Db|-7-----------------7/9-7-5-|-7----------------------|
Ab|------5h7------5h7---------|------5h7---------------|
Eb|----------5----------------|----------5---7---4--5--|
Bb|---------------------------|------------------------|


OUTRO (x4):

Gb|-------------------------|------------------------|
Db|-------------------------|------------------------|
Ab|-------------------------|------------------------|
Eb|------5---4---4-3-1-3-4--|------4---3---1---1-3-1-|
Bb|-3-----------------------|-3--------------3-------|

Gb|-------------------------|-----------------------|
Db|-------------------------|-----------------------|
Ab|-------------------------|-----------------------|
Eb|------5---4---4-3-1-3-4--|------4---3---1---6-5--|
Bb|-3-----------------------|-3--------------3------|


****************************
| h : Hammer On
| p : Pull Off
| / : Slide Up
| \ : Slide Down
****************************
Suggest correction
Give kudos to tab author, rate the tab!
1 2 3 4 5
comments
print report bad tab
guest
You may want to rate the tab now too:
select rating
Wanna post a correction for this tab? Suggest correction