Oops, an error
Loading. Please wait.

Follow The Tears intro tab

version 1
version 1

Intro

Whole song

Interactive

1,846 views 3 this week
2 commentsread comments
1 2 3 4 5
3 more votes to show rating
add to favorites
×
Save as Personal and add changes to this tab that will be seen only by you. Learn more ›
×
You can save this tab as Personal to edit and correct it or add notes. All changes will be seen only by you. Learn more »
launch autoscroll
font size
0
reset
how to read this tab
guitar tuner
edit
Autoscroll
slow
fast
+/-
esc
set tempo
stop
Author
Difficulty
-------------------------------------------------------------------------------
                 Follow the Tears - Heaven and Hell
-------------------------------------------------------------------------------
Tabbed by:ironmanben
Email:superclam500@yahoo.com

| /  slide up
| \  slide down
| h  hammer-on
| p  pull-off
| ~  vibrato
| +  harmonic
| x  Mute note


Tuning:It's in really low #C, so I would recommend tuning the E 
to #C, and then tuning by ear from there.

I noticed the intro on my first tab was wrong, so here is the correct one.

Intro x14
e|-----------------|---------|
B|-----------------|---------|
G|-----------------|---9~----|
D|-2-22-5---4------|---9~----|
A|-2-22-5---4----- |---7~----|
E|-0-00-3-0-2-0----|---------|
   x xx x x x x     Do this only
                   the 5th, 9th
                   12th, and 13th
                   and 14th times
Suggest correction
Creating personal tab
Creating personal tab
You can edit any tab online and save it as your Personal.

You can edit, replace or remove any tab part or add personal notes – all changes will be seen only by you.

Personal tabs can be accessed anytime from any device, even offline.
Learn more »
Give kudos to tab author, rate the tab!
1 2 3 4 5
comments
print report bad tab
2 comments total.
0 reply
Smitty370 621 Aug 06, 2009 11:02 AM

Actually its:

Drop C# tuning

|------------------|-------|
|------------------|-------|
|------------------|---7---|
|--0--0-0-3-0-2-0--|---7---|
|--0--0-0-3-0-2-0--|---5---|
|--0--0-0-3-0-2-0--|-------|

0 reply
ironmanben 2,335 Aug 07, 2009 01:36 PM

No, actually I just didn't feel like changing the things for E to C#. The whole guitar is tuned to C# standard, there's no drop.

guest
You may want to rate the tab now too:
select rating
Wanna post a correction for this tab? Suggest correction