Oops, an error
Loading. Please wait.

Neverwhere Bass Tab

13 views 3 this week
no commentswrite comment
1 2 3 4 5
3 more votes to show rating
add to favorites
launch autoscroll
font size
0
reset
guitar tuner
Autoscroll
slow
fast
+/-
esc
set tempo
stop
Help us to improve Ultimate-Guitar.com Take our survey!
×
Author
Difficulty
Tuning
intermediate
D# G# C# F# A# D#
Title: Neverwere
Artist: Heaven And Hell
Album: The Devil You Know
Bassist: Geezer Butler
Composer: Geezer Butler / Ronnie James Dio / Tony Iommi
Tabbed By: FLBatista
Tunning: 1/2 step's down (Eb,Ab,Db,Gb)


MAIN RIFF:

Gb|---------------------------|--------------------------|
Db|---------------5------4----|---------------5----4-----|
Ab|------7----7------7-7---5--|------7----7------7---5---|x3
Eb|-0--0----0-----------------|-0--0----0----------------|

Gb|---------------------------|----------------------------|
Db|---------------5------4----|---------4------------------|
Ab|------7----7------7-7---5--|------7----5-------2--0-----|
Eb|-0--0----0-----------------|-0--0-------------------3-2-|


VERSE (She made the night...)(x2):

Gb|----------------------------|----------------------------|
Db|----------------------------|----------------------------|
Ab|----------------------------|----------------------------|
Eb|-0--0-5h7-0--0--0--0-2h3p2--|-0--0-5h7-0--0--0--0-2h3-3--|

Gb|----------------------------|----------------------------|
Db|----------------------------|----------------------------|
Ab|----------------------------|----------------------0-----|
Eb|-0--0-5h7-0--0--0--0-2h3p2--|-0--0-5h7-0--0--0--3----3-2-|


PRE-CHORUS (Waiting alone...):

Gb|--------------------------|---------------------------|
Db|-------------7--7-7-------|-------------------5-------|
Ab|--------------------------|--------------5------5---5-|
Eb|-5---5---5----------0-2-3-|--3--3--3-3-3----------3---|

Gb|---------------------------|--------------------------|
Db|---------------5------4----|---------------5----4-----|
Ab|------7----7------7-7---5--|------7----7------7---5---|
Eb|-0--0----0-----------------|-0--0----0----------------|

Gb|----------------------------|--------------------------|
Db|-----------7---7----7-------|------------------5---5---|
Ab|------------------7---------|-------------5------5---5-|
Eb|-5--5-5--5------------0-2-3-|---3--3-3-3---------------|

Gb|----------------------------|--------------------------|
Db|----------------------------|--------------------------|
Ab|----------------------------|-5------------------------|
Eb|-7--7-7--7-7--7-7--7-7--5-7-|---7--6--5--3-5-6--5--3---|


CHORUS (To neverwhere...):

Gb|---------------------------|--------------------------|
Db|---------------5------4----|---------------5----4-----|
Ab|------7----7------7-7---5--|------7----7------7---5---|
Eb|-0--0----0-----------------|-0--0----0----------------|

Gb|---------------------------|----------------------------|
Db|---------------5------4----|---------4------------------|
Ab|------7----7------7-7---5--|------7----5-------2--0-----|
Eb|-0--0----0-----------------|-0--0-------------------3-2-|


VERSE (And then the child...) (x2):

Gb|----------------------------|----------------------------|
Db|----------------------------|----------------------------|
Ab|----------------------------|----------------------------|
Eb|-0--0-5h7-0--0--0--0-2h3p2--|-0--0-5h7-0--0--0--0-2h3-3--|

Gb|----------------------------|----------------------------|
Db|----------------------------|----------------------------|
Ab|----------------------------|----------------------0-----|
Eb|-0--0-5h7-0--0--0--0-2h3p2--|-0--0-5h7-0--0--0--3----3-2-|


PRE-CHORUS (Together they wait...):

Gb|--------------------------|--------------------------|
Db|-------------7--7-7-------|------------------5-------|
Ab|--------------------------|-------------5------5---5-|
Eb|-5---5---5----------0-2-3-|---3--3-3-3-----------3---|

Gb|---------------------------|--------------------------|
Db|---------------5------4----|---------------5----4-----|
Ab|------7----7------7-7---5--|------7----7------7---5---|
Eb|-0--0----0-----------------|-0--0----0----------------|

Gb|--------------------------------|----------------------------|
Db|----------------------7-7-------|--------------------5---5---|
Ab|--------------------------------|---------------5------5---5-|
Eb|-5--5-5-5-5-5-5-5-5-5-----0-2-3-|--3-3--3-3-3-3--------------|

Gb|----------------------------|--------------------------|
Db|----------------------------|--------------------------|
Ab|----------------------------|-5------------------------|
Eb|-7--7-7--7-7--7-7--7-7--5-7-|---7--6--5--3-5-6--5--3---|


CHORUS 2 (At neverwhere...):

Gb|-----------------------------|-----------------------------|
Db|-----------------------------|-----------------------------|
Ab|------5----------------------|------5----------------------|
Eb|-0--7---7-5-3-5----3-5-3-2-3-|-0--7---7-5-3-5----3-5-3-2-3-|

Gb|------------------------------|----------------------------|
Db|------------------------------|----------------------------|
Ab|-------5----------------------|------5-------------------3-|
Eb|-0-5-7---7-5-3-5----3-5-3-2-3-|-0--7---7-5-3-5--3--2--3----|

Gb|------------------------|
Db|------------------------|
Ab|--2---1---3--2--1-------|
Eb|------------------------|


INTERLUDE (The hand that rocks the cradle...):

Gb|--------------------|---------------------|
Db|--------------------|----------3---5---3--|
Ab|-5-------5----------|-5-------------------|
Eb|-----------4--------|---------------------|

Gb|--------------------|--------------------5---5-7-|
Db|--------------------|--------------3-5-7---7-----|
Ab|-5-------5----------|----------5-----------------|
Eb|-----------4--------|-3--0-1---------------------|

Gb|-----------------5h7-|---------------------|
Db|---------------------|----------3---5---3--|
Ab|-5-------5-----------|-5-------------------|
Eb|-----------4---------|---------------------|

Gb|--------------------|--------------------5---5-7-|
Db|--------------------|--------------3-5-7---7-----|
Ab|-5-------5----------|----------5-----------------|
Eb|-----------4--------|-3--0-1---------------------|


GUITAR SOLO:

Gb|---------------------------------|-----------------5-6-7-6-5-----|
Db|---------------------------------|---------3-5-6-7-----------7-5-|
Ab|-3-3-3-3-3-3-3-3-3-3-3-3-3---7/8-|-8-\5-5------------------------|
Eb|---------------------------0-----|-------------------------------|

Gb|---------------------------------|---------------------------------|
Db|---------------------------------|-------------------3-5-7-5-3-----|
Ab|-3-3-3-3-3-3-3-3-3-3-3-3-3----3--|-5-5-5-5-5-5-5-5-5-----------5-0-|
Eb|---------------------------0-----|---------------------------------|

Gb|---------------------------------|-----------------5-6-7-6-5-----|
Db|---------------------------------|---------3-5-6-7-----------7-5-|
Ab|-3-3-3-3-3-3-3-3-3-3-3-3-3---7/8-|-8-\5-5------------------------|
Eb|---------------------------0-----|-------------------------------|

Gb|-------------------------7-------|---------------------------------|
Db|-----------------9-------5-------|---------------------------------|
Ab|-3-3-3-3-3-3-3-3-7---------------|-5-5-5-5-5-5-5-5-3-3-3-3-3-3-3-3-|
Eb|---------------------------------|---------------------------------|

Gb|---------------------------|--------------------------|
Db|---------------5------4----|---------------5----4-----|
Ab|------7----7------7-7---5--|------7----7------7---5---|
Eb|-0--0----0-----------------|-0--0----0----------------|

Gb|---------------------------|----------------------------|
Db|---------------5------4----|---------4------------------|
Ab|------7----7------7-7---5--|------7----5-------2--0-----|
Eb|-0--0----0-----------------|-0--0-------------------3-2-|


VERSE (And then the prize...)(x2):

Gb|----------------------------|----------------------------|
Db|----------------------------|----------------------------|
Ab|----------------------------|----------------------------|
Eb|-0--0-5h7-0--0--0--0-2h3p2--|-0--0-5h7-0--0--0--0-2h3-3--|

Gb|----------------------------|----------------------------|
Db|----------------------------|----------------------------|
Ab|----------------------------|----------------------0-----|
Eb|-0--0-5h7-0--0--0--0-2h3p2--|-0--0-5h7-0--0--0--3----3-2-|


PRE-CHORUS (Waiting for the witching hour...):

Gb|--------------------------|---------------------------|
Db|-------------7--7-7-------|-------------------5-------|
Ab|--------------------------|--------------5------5---5-|
Eb|-5---5---5----------0-2-3-|--3-3--3-3-3-----------3---|

Gb|---------------------------|--------------------------|
Db|---------------5------4----|---------------5----4-----|
Ab|------7----7------7-7---5--|------7----7------7---5---|
Eb|-0--0----0-----------------|-0--0----0----------------|

Gb|--------------------------|---------------------------|
Db|-------------7--7-7-------|-------------------5---5---|
Ab|--------------------------|--------------5------5---5-|
Eb|-5---5---5----------0-2-3-|--3-3--3-3-3---------------|

Gb|----------------------------|--------------------------|
Db|----------------------------|--------------------------|
Ab|----------------------------|-5------------------------|
Eb|-7--7-7--7-7--7-7--7-7--5-7-|---7--6--5--3-5-6--5--3---|


CHORUS (To neverwhere...):

Gb|---------------------------|--------------------------|
Db|---------------5------4----|---------------5----4-----|
Ab|------7----7------7-7---5--|------7----7------7---5---|x3
Eb|-0--0----0-----------------|-0--0----0----------------|

Gb|---------------------------|----------------------------|
Db|---------------5------4----|---------4------------------|
Ab|------7----7------7-7---5--|------7----5-------2--0-----|
Eb|-0--0----0-----------------|-0--0-------------------3-2-|

Gb|------------|
Db|------------|
Ab|------------|
Eb|-0----------|


****************************
| h : Hammer On
| p : Pull Off
| / : Slide Up
| \ : Slide Down
****************************
Suggest correction
Give kudos to tab author, rate the tab!
1 2 3 4 5
comments
print report bad tab
guest
You may want to rate the tab now too:
select rating
Wanna post a correction for this tab? Suggest correction