Oops, an error
Loading. Please wait.

Desire Tab

426 views 1 this week
no commentswrite comment
1 2 3 4 5
please rate
add to favorites
launch autoscroll
font size
0
reset
how to read this tab
guitar tuner
Autoscroll
slow
fast
+/-
esc
set tempo
stop
Help us to improve Ultimate-Guitar.com Take our survey!
×
Author
Difficulty
Goad 4,534
novice
Heavenly Beat - Desire
From the Suday 7" (Captured Tracks 2011).

https://www.facebook.com/heavenlybeat

Tabbed by Isaac Murguia, June 2012.
YouTube: Goadiroth

INTRO:
e|---------------------|
B|---------------------|
G|-7777-7777-7777-7777-|
D|---------------------|
A|---------------------|
E|---------------------|

INTRO-A:                                (x2)
            (x2)                 (x3)
e|--------------------------|-------------|-----------|
B|--------------------------|-------------|---10------|
G|-7777-7777-7777-7h9-7---7-|-11-11-11-11-|-9----11-9-|
D|----------------------9---|-------------|-----------| (x2)
A|--------------------------|-------------|-----------|
E|--------------------------|-------------|-----------|

VERSE:
       (x2)              (x2)
e|-2--2-----2--2--|-5--5-----5--5--|
B|-3--3-----3--3--|-5--5-----5--5--|
G|-2--2-----2--2--|-6--6-----6--6--|
D|-0--0-----0--0--|-7--7-----7--7--| (x3)
A|-0--0-----0--0--|-7--7-----7--7--|
E|----------------|-5--5-----5--5--|

SOLO:
e|----------------------------------|----------------------5-5/7--77-5-5-|
B|-777-5---5----------3-3/5--55-3-3-|-777-5---5---------3----------------|
G|-------7---7-4-2-4----------------|-------7---7-4-2h4------------------|
D|----------------------------------|------------------------------------|
A|----------------------------------|------------------------------------|
E|----------------------------------|------------------------------------|

BRIDGE:
                *
e|-----------------------|------------5---------------|
B|-------7-5----5--5-----|-------5------7-5-7-5---5---|
G|-----7--------7----7---|-----7----------------7---7-|
D|-5h7----------7------7-|-5h7------------------------| (x2) * = not repeated
A|-----------------------|----------------------------|
E|-----------------------|----------------------------|

          (x2)              (x8)
e|---------------------|-------------|
B|---------------------|-------------|
G|-7777-7777-7777-7777-|-11-11-11-11-|
D|---------------------|-------------|
A|---------------------|-------------|
E|---------------------|-------------|

INTRO-A

End.
Suggest correction
What's this?
You can suggest a correction to this tab. Community and Mods will review your correction and vote to approve or reject it.
comments
We did not receive enough feedback on this tab! Please rate:
print report bad tab
1 2 3 4 5
guest
You may want to rate the tab now too:
select rating
Please do not post tabs as comments. Select "correction" instead!