Oops, an error
Loading. Please wait.

Counting tab

version 3
version 3

Whole song

Interactive

by Heavens
624 views 1 this week
no commentswrite comment
1 2 3 4 5
1 last vote to show rating
add to favorites
×
Save as Personal and add changes to this tab that will be seen only by you. Learn more ›
×
You can save this tab as Personal to edit and correct it or add notes. All changes will be seen only by you. Learn more »
launch autoscroll
font size
0
reset
how to read this tab
guitar tuner
edit
Autoscroll
slow
fast
+/-
esc
set tempo
stop
Author
Difficulty
-------------------------------------------------------------------------------
                         Counting - Heavens
-------------------------------------------------------------------------------
Tabbed by: Schmojay
Email:

This tab is spaced out for visibility. Listen to the song for the timing.

Tuning: Standard

Intro/Pre Verse:
e|---------------------------------------------------------------------------|
B|---------------------------------------------------------------------------|
G|--------555555/7777777----7\5555555----------------------------------------|
D|--------xxxxxxxxxxxxxx----xxxxxxxxx----------------------------------------|
A|--------333333/5555555----5\3333333----------------------------------------|
E|---------------------------------------------------------------------------|

Verse:
e|---------------------------------------------------------------------------|
B|---------------------------------------------------------------------------|
G|--------9999999-999999-10--------------------------------------------------|
D|---------------------------------------------------------------------------|
A|---------------------------------------------------------------------------|
E|---------------------------------------------------------------------------|
  switch off between that until...
e|---------------------------------------------------------------------------|
B|---------------------------------------------------------------------------|
G|--------12-12-12-12-10-9---------------------------------------------------|
D|------------------------10-------------------------------------------------|
A|---------------------------------------------------------------------------|
E|---------------------------------------------------------------------------|

e|---------------------------------------------------------------------------|
B|---------------------------------------------------------------------------|
G|--------9999999-999999-10---------12-12-12-12-12---------------------------|
D|---------------------------------------------------------------------------|
A|---------------------------------------------------------------------------|
E|---------------------------------------------------------------------------|

Bridge:
e|---------------------------------------------------------------------------|
B|---------------------------------------------------------------------------|
G|----------2---2------12----------------------------------------------------|
D|------2-2---2--------------------------------------------------------------|
A|-----0-0-0-0-0-------------------------------------------------------------|
E|----------------------------------12\\\\\\\\\\\\\\\\\\\0-------------------|
Do that sort of randomly until chorus

Chorus:
e|------------------------------------------------------------------------------|
B|------------------------------------------------------------------------------|
G|------------------------------------------------------------------------------|
D|--------5555\32-3-2-----------------------------------------------------------|
A|-------------------3----------------------------------------------------------|
E|------------------------------------------------------------------------------|

e|---------------------------------------------------------------------------|
B|---------------------------------------------------------------------------|
G|---------------------------------------------------------------------------|
D|---------55553\2-3/5-------------------------------------------------------|
A|---------------------------------------------------------------------------|
E|---------------------------------------------------------------------------|

e|---------------------------------------------------------------------------|
B|---------------------------------------------------------------------------|
G|---------------------------------------------------------------------------|
D|--------5555\32-3-2--------------------------------------------------------|
A|-------------------3-2-3/5\3-2-3-------------------------------------------|
E|---------------------------------------------------------------------------|

e|------------------------------------------------------------------------------|
B|------------------------------------------------------------------------------|
G|------------------------------------------------------------------------------|
D|--------5555\32-3-2-----------------------------------------------------------|
A|-------------------3----------------------------------------------------------|
E|------------------------------------------------------------------------------|

e|---------------------------------------------------------------------------|
B|---------------------------------------------------------------------------|
G|---------------------------------------------------------------------------|
D|---------55553\2-3/5-------------------------------------------------------|
A|---------------------------------------------------------------------------|
E|---------------------------------------------------------------------------|

e|---------------------------------------------------------------------------|
B|---------------------------------------------------------------------------|
G|---------------------------------------------------------------------------|
D|--------5555\32-3-2--------------------------------------------------------|
A|-------------------3-2222222-----------------------------------------------|
E|---------------------------------------------------------------------------|

Verse 2:
e|---------------------------------------------------------------------------|
B|---------------17--15--17---------17-------13------------------------------|
G|---------------------------------------------------------------------------|
D|---------------------------------------------------------------------------|
A|---------------------------------------------------------------------------|
E|---------------------------------------------------------------------------|

Song Flow:
           Intro
           Verse
           Bridge
           Pre Verse
           Verse
           Bridge
           Chorus
           Pre Verse
           Verse 2
           Bridge
           Chorus
           End with Pre Verse

There are layers upon layers of guitar and synth overdubs on this song. So this is as 
as I could get to the main gyst of it. have fun.

| /  slide up
| \  slide down
| h  hammer-on
| p  pull-off
| ~  vibrato
| +  harmonic
| x  Mute note
===============================================================================

            
            
Suggest correction
Creating personal tab
Creating personal tab
You can edit any tab online and save it as your Personal.

You can edit, replace or remove any tab part or add personal notes – all changes will be seen only by you.

Personal tabs can be accessed anytime from any device, even offline.
Learn more »
Give kudos to tab author, rate the tab!
1 2 3 4 5
comments
print report bad tab
guest
You may want to rate the tab now too:
select rating
Wanna post a correction for this tab? Suggest correction