Oops, an error
Loading. Please wait.

Reign On My Parade Tab

492 views 1 this week
no commentswrite comment
1 2 3 4 5
please rate
add to favorites
launch autoscroll
font size
0
reset
how to read this tab
guitar tuner
Autoscroll
slow
fast
+/-
esc
set tempo
stop
Help us to improve Ultimate-Guitar.com Take our survey!
×
Author
Difficulty
Tuning
intermediate
C# G# C# F# A# D#
Heaven's Basement- Reign On My Parade



Tuning: Drop C# ->
eb
Bb
F#
C#
Ab
Eb

KEY:
* Pinch
~ Vibrato
h Hammer On
p Pull Off

INTRO

Guitar 1:
eb ------------------------------------------------------------------|
Bb ------------------------------------------------------------------|
F# -------------12-10-------------------------12--10-----------------|
C# -------10h12-------12-10h12p10h12~---10h12---12--12-10---10h12~~--|
Ab ------------------------------------------------------12----------|
C# ------------------------------------------------------------------|


Guitar 2:
eb ------------------------------------------------------------------|
Bb ------------------------------------------------------------------|
F# -7~~---7----------------------------------------------------------|
C# -------7----------------------------------------------------------|
Ab -------5------------------------------3----------------5----------|
C# -------0------------------------------3----------------5----------|




Guitar 1:
eb ------------------------------------------------------------------|
Bb ------------------------------------------------------------------|
F# -------------12-10-------------------------12--10-----------------|
C# -------10h12-------12-10h12p10h12~---10h12---12--12-10~-----------|
Ab --------------------------------------------------------12~~------|
C# ------------------------------------------------------------------|


Guitar 2:
eb -----------------------------------------------------------------|
Bb -----------------------------------------------------------------|
F# -----------------------------------------------------------------|
C# -----------------------------------------------------------------|
Ab ------5-----------------------------3-5----------5--3------------|
C# ------0-----------------------------3-5----------5--3------------|





Verse:
eb -----------------------------------------------------------------|
Bb -----------------------------------------------------------------|
F# -----------------------------------------------------------------|
C# --------------3------------------3---------3*~~------------------|
Ab ---5-5-3h5p3h5----5-3-5--3--5-3h5---5-5-3h5----------------------|
C# ---0---------------------3----------5----------------------------|
x However many it is




Chorus:
eb -----------------------------------------------------------------|
Bb -----------------------------------------------------------------|
F# -----------------------------------------------------------------|
C# ---7-----------------3-------------5-----------------------------|
Ab ---5-5555555---------3-3333333-----5-5555555---5---5-0-3/5-------|
C# ---0-0000000---------3-3333333-----5-5555555---0-0-0-0-3/5-------|

x2




Bridge:
eb -----------------------------------------------------------------|
Bb -----------------------------------------------------------------|
F# -----------------------------------------------------------------|
C# --------------------------------------------------------------3--|
Ab --10p9h10-12---10p9h10-12---10p9h10-----10p9h10-12---10p9h10--3--|
C# --10p9h10-12---10p9h10-12---10p9h10-----10p9h10-12---10p9h10--3--|





SOLO:


Guitar 1:

Too lazy to work out the whole solo, but for the lead guitarist this is a good
opportunity to bust out those Pentatonic licks you've got stored up and improvise for yourself.
It's in C#m (which starts on the 10th fret remember, so the same position as Dm would be 
if we were in standard tuning)



Guitar 2:

eb -----------------------------------------------------------------|
Bb -----------------------------------------------------------------|
F# -----------------------------------------------------------------|
C# --5------------8------------0------------0-----------------------|
Ab --5-5555555----8-8888888----0-0000000----0-0000000---------------|
C# --5-5555555----8-8888888----0-0000000----0-0000000---------------|
Suggest correction
Give kudos to tab author, rate the tab!
1 2 3 4 5
comments
print report bad tab
guest
You may want to rate the tab now too:
select rating
Please do not post tabs as comments. Select "correction" instead!