Oops, an error
Loading. Please wait.

Are We Art F Tab

312 views 1 this week
no commentswrite comment
1 2 3 4 5
please rate
add to favorites
launch autoscroll
font size
0
reset
how to read this tab
guitar tuner
Autoscroll
slow
fast
+/-
esc
set tempo
stop
Help us to improve Ultimate-Guitar.com Take our survey!
×
Author
Difficulty
Tuning
intermediate
D A D G B E
Artist: Heavy Heavy Low Low
Song: "Are We Art F***?"
Album: Kids Kids Kids EP
Label: Twelve Gauge Records

Drop D Tuning

p = pull off
b = bend
PM = palm mute


Intro (0:00 - 0:14)
---------------------|--END ON-|--------|
----------------[x8]-|---------|--------|
---------------------|---------|--------|
---------------------|---------|--------|
-11p0----------------|---------|--------|
------6p0-5p0--------|--8b-----|--------|
PM:


Part I (0:15 - 0:24)
----------------------------------------|
-----------------------[x4]-------------|
----0-0-0--0-0-0------------------------|
----0-0-0--0-0-0------------------------|
----0-0-0--0-0-0------------------------|
PM: - - -  - - -


Part II (0:24 - 0:32)
-----------------------------------------|
-------12---------12----------[x8]-------|
-------15---------15---------------------|
----0------0-0-0-------------------------|
----0------0-0-0-------------------------|
----0------0-0-0-------------------------|
PM: -      - - -


Part III (0:32 - 0:47)
-|-------|------------------------------------------|
-|-------|---9-9----9-9----10-10-----7-7-----[x2]---|
-|-------|---7-7----7-7-----8--8-----5-5------------|
-|-0-0-0-|-0-----0-0----0-0------0-0----------------|
-|-0-0-0-|-0-----0-0----0-0------0-0----------------|
-|-0-0-0-|-0-----0-0----0-0------0-0----------------|
PM:- - -   -     - -    - -      - -


Part IV (0:47 - 1:12)
-------------------------------------------------------------|
------9-9-9---9-9-9---9-9-9---9-9-9---10-10-10---7-7-7-------|
------7-7-7---7-7-7---7-7-7---7-7-7----8--8--8---5-5-5-------|
----0-------0-------0-------0-------0----------0-------------|
----0-------0-------0-------0-------0----------0-------------|
----0-------0-------0-------0-------0----------0-------------|
PM: -       -       -       -       -


Outro (1:12 - 1:21)
---------------------------------|
---------------------[x4]--------|
---------------------------------|
----0--0--0--0-------------------|
----0--0--0--0-------------------|
----0--0--0--0-------------------|
PM: -  -  -  -

The ending to this song is just sound effects and background noise.
Enjoy!
Suggest correction
Give kudos to tab author, rate the tab!
1 2 3 4 5
comments
print report bad tab
guest
You may want to rate the tab now too:
select rating
Please do not post tabs as comments. Select "correction" instead!