Oops, an error
Loading. Please wait.

Are You Ok Kiddo Tab

1,771 views 1 this week
no commentswrite comment
1 2 3 4 5
excellent!
x 3
add to favorites
launch autoscroll
font size
0
reset
how to read this tab
guitar tuner
Autoscroll
slow
fast
+/-
esc
set tempo
stop
Help us to improve Ultimate-Guitar.com Take our survey!
×
Author
Difficulty
Tuning
intermediate
D A D G B E
-------------------------------------------------------------------------------
                             SONG NAME - Band Name
-------------------------------------------------------------------------------
Tabbed by: Rutger from syracuse
 i did the best i could, i think it sounds dandy

Tuning: drop dizzle

e|--------------------------------------------------------------------------------|
b|--------------------------------------------------------------------------------|
g|----9p8-------------9p8-----12~----9p8-----------9p8----15-14-12-14-12----------|
d|--------8h9--12~-------8h9-------------8h9--12~-----8h9-------------------------|     x2
a|--------------------------------------------------------------------------------|
d|--------------------------------------------------------------------------------|

e|-------------------------------------------------------------------------------|
b|-------------------------------------------------------------------------------|
g|-------------------------------------------------------------------------------|
d|--0---0-0----0---0-0-----------------------------------------------------------|
a|--0---0-0----0---0-0-----------------------------------------------------------|
d|--0---0-0----0---0-0-----------------------------------------------------------|
       .       .   .        .       .  .


e|---------------------------------------------|
b|-----------4/5------------4/5-----7--7-------|
g|-----------7/8------------7/8----10-10-------|
d|--000--000-------000--000-----0--------------|
a|--000--000-------000--000-----0--------------|
d|--000--000-------000--000-----0--------------|
       . . .     . . .              . . .    . . .          .


e|---------------------------------------------|
b|-----------4/5------------4/5-----9--9-------|
g|-----------7/8------------7/8----12-12-------|
d|--000--000-------000--000-----0--------------|
a|--000--000-------000--000-----0--------------|
d|--000--000-------000--000-----0--------------|
       . . .     . . .              . . .    . . .          .

e|---------------------------------------------|
b|-----------4/5------------4/5-----7--7-------|
g|-----------7/8------------7/8----10-10-------|
d|--000--000-------000--000-----0--------------|
a|--000--000-------000--000-----0--------------|
d|--000--000-------000--000-----0--------------|
       . . .     . . .              . . .    . . .          .


e|---------------------------------------------|
b|-----------4/5------------4/5-----9--9-------|
g|-----------7/8------------7/8----12-12-------|
d|--000--000-------000--000-----0--------------|
a|--000--000-------000--000-----0--------------|
d|--000--000-------000--000-----0--------------|
       . . .     . . .              . . .    . . .          .


e|---------------------------------------------|
b|-----------4/5------------4/5-----7--7-------|
g|-----------7/8------------7/8----10-10-------|
d|--000--000-------000--000-----0--------------|
a|--000--000-------000--000-----0--------------|
d|--000--000-------000--000-----0--------------|
       . . .     . . .              . . .    . . .          .


e|---------------------------------------------|
b|-----------4/5------------4/5-----9--9-------|
g|-----------7/8------------7/8----12-12-------|
d|--000--000-------000--000-----0--------------|
a|--000--000-------000--000-----0--------------|
d|--000--000-------000--000-----0--------------|
       . . .     . . .              . . .    . . .          .

e|---------------------------------------------|
b|-----------4/5------------4/5-----7--7-------|
g|-----------7/8------------7/8----10-10-------|
d|--000--000-------000--000-----0--------------|
a|--000--000-------000--000-----0--------------|
d|--000--000-------000--000-----0--------------|
       . . .     . . .              . . .    . . .          .


e|---------------------------------------------|
b|-----------4/5------------4/5----------------|
g|-----------7/8------------7/8----------------|
d|--000--000-------000--000-------5--3---------|
a|--000--000-------000--000-------5--3---------|
d|--000--000-------000--000-------5--3---------|
       . . .     . . .              . . .    . . .


e|----------------------------|
b|----------------------------|
g|---7----6-------------------|
d|-----55---5567--------------|            x 16
             . .      . . . .
a|-----------------|
d|-----------------|


on the 17th time you do that just start tremolo picking the palm muted notes and you'll
good. do it with the tremolo 4 times and then go into-


e|--------------------------------------------------|
b|--------------------------------------------------|
g|--------------------------------------------------|
d|-1---1-2-1----1-2-1---1-2--4~--2~------       x 3-|
a|-1---1-2-1----1-2-1---1-2--4~--2~-----------------|
d|-1---1-2-1----1-2-1---1-2--4~--2~-----------------|

e|-----------------------------------------|
b|-----------------------------------------|
g|-----------------------------------------|
d|-1---1-2-1----1-2-1---1-2--5b~--3b~------|
a|-1---1-2-1----1-2-1---1-2--5b~--3b~------|
d|-1---1-2-1----1-2-1---1-2--5b~--3b~------|


e|-----------------------------------------------------------------------------|
b|-----------------------------------------------------------------------------|
g|-----------------------------------------------------------------------------|
d|-1-0-1-2-1-0-1-0---1-0-1-2-1-0-1-0---1-0-1-2-1-0-1-0---1-0-1-2-4~-2~     x 2-|
a|-1-0-1-2-1-0-1-0---1-0-1-2-1-0-1-0---1-0-1-2-1-0-1-0---1-0-1-2-4~-2~---------|
d|-1-0-1-2-1-0-1-0---1-0-1-2-1-0-1-0---1-0-1-2-1-0-1-0---1-0-1-2-4~-2~---------|



e|-----------------------------------------|
b|-----------------------------------------|
g|-----------------------------------------|
d|-1---1-2-1----1-2-1---1-2--4~--2~--------|
a|-1---1-2-1----1-2-1---1-2--4~--2~--------|
d|-1---1-2-1----1-2-1---1-2--4~--2~--------|

e|------------------------------------------------------------------------|
b|------------------------------------------------------------------------|
g|------------------------------------------------------------------------|
d|-1-0-1-2-1-0-1-0---1-0-1-2-1-0-1-0---1-0-1-2-1-0-1-0---1-0-1-2-4~-2~----|
a|-1-0-1-2-1-0-1-0---1-0-1-2-1-0-1-0---1-0-1-2-1-0-1-0---1-0-1-2-4~-2~----|
d|-1-0-1-2-1-0-1-0---1-0-1-2-1-0-1-0---1-0-1-2-1-0-1-0---1-0-1-2-4~-2~----|



e|-----------------------------------------------------------------------------|
b|-----------------------------------------------------------------------------|
g|-----------------------------------------------------------------------------|
d|--0---0-0-----0----0-0-------------------------------------------------------|
a|--0---0-0-----0----0-0-------------------------------------------------------|
d|--0---0-0-----0----0-0-------------------------------------------------------|


thats pretty deece i hope

-rut
Suggest correction
Give kudos to tab author, rate the tab!
1 2 3 4 5
comments
print report bad tab
guest
You may want to rate the tab now too:
select rating
Wanna post a correction for this tab? Suggest correction