Oops, an error
Loading. Please wait.

Asvln Tab

version 2
version 2

Whole song

563 views 1 this week
no commentswrite comment
1 2 3 4 5
excellent!
x 2
add to favorites
launch autoscroll
font size
0
reset
how to read this tab
guitar tuner
Tab Pro tools
  • play this tab
  • loop segment
  • change instrument
  • show fretboard
  • metronome
Autoscroll
slow
fast
+/-
esc
set tempo
stop
Contributor
Difficulty
intermediate
-------------------------------------------------------------------------------
                             SONG NAME - Band Name
-------------------------------------------------------------------------------
Tabbed by: Rutger from syracuse
There's another tab to this song on here which helped me out a lot in doing this one so thanks.

Tuning: drop d

e|-------------------------------------------------------------------------------|
b|--7-0-0-8-0-0-7-0-0-6-0-0-------------7-0-0-8-0-0-7-0-0-6-0-0------------------|
g|-------------------------------------------------------------------------------|
d|------------------------------7-8-6-7----------------------------7-8-6-7-5-6---|
a|------------------------------7-8-6-7----------------------------7-8-6-7-5-6---|
d|------------------------------7-8-6-7----------------------------7-8-6-7-5-6---|
.   .   .   .                   .   .   .   .   .  .


e|-------------------------------------------------|
b|-------------------------------------------------|
g|-------------------------------------------------|
d|---7p6-0-10--------7p6-0-10-----------       x 4-|
a|------------6p5-6-----------6p5-6p5--------------|
d|-------------------------------------------------|


e|-------------------------------------------------------|
b|-------------------------------------------------------|
g|-------------------------------------------------------|
d|-------------------------------------------------------|
a|---3-2-3--3*-3-2-3-----3-2-3--3*-3-2-3-----------------|
d|---3-2-3-----3-2-3-----3-2-3-----3-2-3-----------------|
         .   .   .          .   .   .          .   .  .          .   .   .

e|-------------------------------------------------|
b|-------------------------------------------------|
g|-------------------------------------------------|
d|---7p6-0-10---------7p6-0-10----------       x 2-|
a|------------6p5-6p5-----------6p5-6--------------|
d|-------------------------------------------------|

e|-----------------------------------------------------------|
b|-----------------------------------------------------------|
g|---9p8-0-11---------9p8-0-11-------------------------------|
d|------------8p7-8p7----------8p7-8----------------     x 2-|
a|-----------------------------------------------------------|
d|-----------------------------------------------------------|


e|----------------------------------------------------------------------------------|
b|----------------------------------------------------------------------------------|
g|----------------------------------------------------------------------------------|
d|------------------------------------------------------------------------3*--------|
a|---3-2-3--3*-3-2-3-----3-2-3--3*-3-2-3-----3-2-3--3*-3-2-3-----3-2-3-----3-2-3----|
d|---3-2-3-----3-2-3-----3-2-3-----3-2-3-----3-2-3-----3-2-3-----3-2-3-----3-2-3----|



e|-------------------------------------------------------|
b|-------------------------------------------------------|
g|-------------------------------------------------------|
d|-------------------------------3*----------------------|
a|---3-2-3--3*-3-2-3-----3-2-3-----3-2-3-----------------|
d|---3-2-3-----3-2-3-----3-2-3-----3-2-3-----------------|
         .   .   .          .   .   .          .   .  .          .   .   .


e|-------------------------------------------------------|
b|-------------------------------------------------------|
g|-------------------------------------------------------|
d|-------------------------------3*----------------------|
a|---3-2-3--3*-3-2-3-----3-2-3-----3-2-3-----------------|
d|---3-2-3-----3-2-3-----3-2-3-----3-2-3-----------------|
         .   .   .          .   .   .          .   .  .          .   .   .


e|------------------------------------------------|
b|------------------------------------------------|
g|------------------------------------------------|
d|--3-2-3-2-3-2-3-2--0~-----2-3-2-3-2-3-2-3--0----|
a|--3-2-3-2-3-2-3-2--0~-----2-3-2-3-2-3-2-3--0----|
d|--3-2-3-2-3-2-3-2--0~-----2-3-2-3-2-3-2-3--0----|
       .   .   .   .  .   .   .   .                  .   .   .  .   .   .   .   .    .


this next part i did my best on, ill give both guitar parts so u can kinda understand
it fits together, otherwise it sounds like shit on its own

the freakout part-

GUITAR 1:

e|-------------------------------------------------------------|
b|------------------7--------9--------12/15--------------------|
g|-----------------10-------12--------15/18--------------------|
d|-------------000------000------000----------------       x 2-|
a|-2/10-2/10---000------000------000---------------------------|
d|-------------000------000------000---------------------------|
     ^tremolo^      . . .            . . .            . . .   ^tremolo^


GUITAR 2:

e|---------------------------------------------|
b|---7/-9----7/-9----7/-9/15-------------------|
g|--10/12---10/12---10/12/18-------------------|
d|-----------------------------------      x 2-|
a|---------------------------------------------|
d|---------------------------------------------|
        ^^^^tremolo all of this^^^^

k back to just one guitar now cuz im lazy


e|---------------------------------|
b|---------------------------------|
g|---------------------------------|
d|---3----2-3-2---3*---------------|    x 3
a|---3----2-3-2--------------------|
d|---3----2-3-2------10\-----------|
         .        .   .   .
e|---------------------------------|
b|---------------------------------|
g|---------------------------------|
d|---3----2-3-2--------------------|
a|---3----2-3-2---3*---3\----------|
d|---3----2-3-2--------------------|
         .        .   .   .


e|----------------------------|
b|-----------------3\---------|
g|----------------------------|
d|--2---3-2-3-----------------|     x 4
a|--2---3-2-3---3*------------|
d|--2---3-2-3-----------------|
       .       .   .  .

e|-----------------------------|
b|-----------------------------|
g|-----------------------------|
d|--2-3---3-2-3----------------|
a|--2-3---3-2-3----------------|
d|--2-3---3-2-3----12/---------|
       .   .      .   .   .


(BASS FILL)


e|-------------------------------|
b|-------------------------------|
g|-------------------------------|
d|-------------------------------|
a|---3-2-3--3*-3-2-3-------------|
d|---3-2-3-----3-2-3-------------|
         .   .   .          .   .   .


i did my best

-rut
comments
We did not receive enough feedback on this tab! Please rate:
print report bad tab
1 2 3 4 5
I want to post or [tab]
guest
You may want to rate the tab now too:
select rating
Please do not post tabs as comments. Select "correction" instead!