Oops, an error
Loading. Please wait.

Asvln Tab

version 3
version 3

Whole song

80 views 1 this week
no commentswrite comment
1 2 3 4 5
please rate
add to favorites
launch autoscroll
font size
0
reset
how to read this tab
guitar tuner
Autoscroll
slow
fast
+/-
esc
set tempo
stop
Help us to improve Ultimate-Guitar.com Take our survey!
×
Difficulty
Tuning
intermediate
D A D G B E
This is a tab for ASVLN by HeavyHeavyLowLow. Drop D tuning. First tab ever. 
questions comments. email = linkoot@live.com
 yes.

*=Pinch Harmonics
//=slide

e|--------------------------------------------------------------------|
B|--------------------------------------------------------------------|
G|--7-----8-----7----6----------------7----8----7----6----------------|
D|--5-----6-----5----4------7-8-6-7---5----6----5----4----7-8-6-7-5-6-|
A|--------------------------7-8-6-7-----------------------7-8-6-7-5-6-|
D|----00-----00---00---00---7-8-6-7-----00---00---00---00-7-8-6-7-5-6-|

e|---------------------------------------------------------------|
B|---------------------------------------------------------------|
G|---------------------------------------------------------------|  x4
D|-7-6---10-------7-6---10---------------------------------------|
A|-----7----6-5-6-----7----6-5-6-5-------------------------------|
D|---------------------------------------------------------------|

e|---------------------------------------------------------------|
B|---------------------------------------------------------------|
G|---------------------------------------------------------------|
D|-3-2-3----3-2-3------3-2-3----3-2-3----------------------------|
A|-3-2-3-*3-3-2-3------3-2-3-*3-3-2-3----------------------------|
D|-3-2-3----3-2-3------3-2-3----3-2-3----------------------------|

e|---------------------------------------------------------------|
B|---------------------------------------------------------------|
G|---------------------------------------------------------------|  x2
D|-7-6---10--------7-6---10--------------------------------------|
A|-----7----6-5-6-5----7----6-5-6--------------------------------|
D|---------------------------------------------------------------|

e|---------------------------------------------------------------|
B|---------------------------------------------------------------|
G|-9-8---12--------9-8---12--------------------------------------|
D|-----9----8-7-8-7----9----8-7-8--------------------------------|  x2
A|---------------------------------------------------------------|
D|---------------------------------------------------------------|

e|---------------------------------------------------------------|
B|---------------------------------------------------------------|
G|---------------------------------------------------------------|
D|-3-2-3----3-2-3--3-2-3----3-2-3--3-2-3----3-2-3--3-2-3-*3-3-2-3|
A|-3-2-3-*3-3-2-3--3-2-3-*3-3-2-3--3-2-3-*3-3-2-3--3-2-3----3-2-3|
D|-3-2-3----3-2-3--3-2-3----3-2-3--3-2-3----3-2-3--3-2-3----3-2-3|

e|---------------------------------------------------------------|
B|---------------------------------------------------------------|
G|---------------------------------------------------------------|
D|-3-2-3----3-2-3------3-2-3----3-2-3----------------------------|   x2
A|-3-2-3-*3-3-2-3------3-2-3-*3-3-2-3----------------------------|
D|-3-2-3----3-2-3------3-2-3----3-2-3----------------------------|

e|------------|
B|------------|
G|------------|
D|-0-00-00-00-|
A|-0-00-00-00-|
D|-0-00-00-00-|

e|---------------------------------------------------------------|
B|-7--7--7--7---10-10-10-10--8--8--8--8-11-11-11-11--------------|
G|-10-10-10-10--13-13-13-13-11-11-11-11-14-14-14-14--------------|\
D|---------------------------------------------------------------| \
A|---------------------------------------------------------------|  \ 
D|---------------------------------------------------------------|   \ x2
                                                                     /
e|---------------------------------------------------------------|  /
B|--7-----10-----12//13-12-11------------------------------------| /
G|-10-----13-----15//16-15-14------------------------------------|/
D|---------------------------------------------------------------|
A|---------------------------------------------------------------|
D|----000----000-------------------------------------------------|

e|-------------------------1/////////////13///////////1----------|
B|---------------------------------------------------------------|
G|---------------------------------------------------------------|
D|-5-3-2-3----3-2--5-3-2-3---------------------------------------|    x4
A|-5-3-2-3-*3-3-2--5-3-2-3---------------------------------------|
D|-5-3-2-3----3-2--5-3-2-3---------------------------------------|

e|---------------------------------------------------------------|
B|---------------------------------------------------------------|
G|---------------------------------------------------------------|
D|-4-5-5-6-8-13//////-----3-2-3----3-2-3-------------------------|
A|-4-5-5-6-8-13/////------3-2-3-*3-3-2-3-------------------------|
D|-4-5-5-6-8-13////-------3-2-3----3-2-3-------------------------|
Suggest correction new What's this?
You can suggest a correction to this tab. Community and Mods will review your correction and vote to approve or reject it.
comments
We did not receive enough feedback on this tab! Please rate:
print report bad tab
1 2 3 4 5
guest
You may want to rate the tab now too:
select rating
Please do not post tabs as comments. Select "correction" instead!