Oops, an error
Loading. Please wait.

Eating The Porridge Bass Tab

version 1
version 1

Whole song

Interactive

624 views 1 this week
no commentswrite comment
1 2 3 4 5
1 last vote to show rating
add to favorites
launch autoscroll
font size
0
reset
guitar tuner
Autoscroll
slow
fast
+/-
esc
set tempo
stop
Help us to improve Ultimate-Guitar.com Take our survey!
×
Difficulty
Tuning
intermediate
D A D G B E
The song is in drop D.

Intro 1
E|------------|
D|------------|
A|------------|
D|0-0-0-4-----|

Early Breakdown
G|---------------------------------------------------------------------------|
D|---------------------------------------------------------------------------|
A|----3---------------3----------------3---------------3---------------------|
D|3-4-00-00-00-3-4-00-00-00-3-4-00-00-00-3-4-00-00-00-00-00-00-00-00-00-1-1--|
intro 2
G|-------------------------------------------|
D|-------------------------------------------|
A|-------------------------------------------|
D|-12/1-00-000000-00-000000-1-5--------------|

Chorus
G|-------6-5--7--------------------------|  x8  end on
D|-6-5------6----------------------------|                      A|  6.
A|-----6---------------------------------|
D|---------------------------------------|

Breakdown
G|----------------------------------------------------------------------------|  x4
D|----------------------------------------------------------------------------|
A|----------------------------------------------------------------------------|
D|444444444444-222222222222-444444444444-2222222222---------------------------|

Outro
G|---------------------------------------|
D|---------------------------------------|
A|---------------------------------------|
D|0-000-000-000|  x3   end on |D|-0-000--|
Suggest correction
Give kudos to tab author, rate the tab!
1 2 3 4 5
comments
print report bad tab
guest
You may want to rate the tab now too:
select rating
Wanna post a correction for this tab? Suggest correction