Oops, an error
Loading. Please wait.

Giant Mantis Vs Turt Nip Tab

927 views 1 this week
no commentswrite comment
1 2 3 4 5
please rate
add to favorites
launch autoscroll
font size
0
reset
how to read this tab
guitar tuner
Autoscroll
slow
fast
+/-
esc
set tempo
stop
Help us to improve Ultimate-Guitar.com Take our survey!
×
Author
Difficulty
novice
Heavy Heavy Low Low - Giant Mantis Vs Turt Nip

Awsome song, one of my favorites.

*Be sure to listen to song to know how some parts are supposed to sound.

E|-------------------|
B|-------------------|
G|-----2-2-2-2-------|
D|-3-3-2-2-2-2-3-3---|
A|-3-3-0-0-0-0-3-3---|
E|-1-1---------1-1---|

X5

E|-------------|
B|-------------|
G|-------------|
D|-------------|
A|-------------|
E|-13\1/10-----|

For this part just strum once then slide down and back up.

E|--------------------|
B|--------------------|
G|-----10-9~-10-9-----|
D|---9------------9---|
A|-8------------------|
E|--------------------|

X4 Then this (I'm not %100 sure on the fill but it works when I play along)

E|-------------------------------------------|
B|-------------------------------------------|
G|-----10-9~-10-9---8-------7---6------------|
D|---9------------9---9-------8---7----------|
A|-8--------------------9-8---------7--------|
E|------------------------------------13\----|

Then

E|---------------------------------|
B|---------------------------------|
G|-----10-9-9-9-9-9-9-9-9-10-9-----| (The 9s are played with the rhythm)
D|---9-------------------------9---|
A|-8-------------------------------|
E|---------------------------------|

X4 Then on this part you have to find the rhythm (Sorry I dont know how to tab it.)

E|-----------------------|
B|-----------------------|
G|-10-10-10-10-10--------|
D|-9--9--9--9--9---------|
A|-8--8--8--8--8---------|
E|-----------------------|

E|-------------------------|
B|-------------------------|
G|-10---------10-----------|
D|-9----------9------------|
A|-8--0-0-0-0-8------------|
E|----0-0-0-0--------------|
  PM  _ _ _ _

E|---------------------|
B|---------------------|
G|-10-10-10-10---------|
D|-9--9--9--9----------|
A|-8--8--8--8----------|
E|---------------------|

E|---------|
B|---------|
G|---------|
D|-5-7-7---|
A|---------|
E|---------|

X4

E|-----------------------|
B|-----------------------|
G|-7-7-7-7-7-7-7-7-------|
D|-5-5-5-5-5-5-5-5-------|
A|-5-5-5-5-5-5-5-5-------|
E|-----------------------|

E|----------------------------|
B|----------------------7-7---|
G|-------5-7-7--------5-7-7---|
D|-5-7-7--------5-7-7---------|
A|----------------------------|
E|----------------------------|

X3

E|--------------|
B|--------------|
G|-------5-7-7--|
D|-5-7-7--------|
A|--------------|
E|--------------|

Then end with

E|-------------------------|
B|---------8-6-------------|
G|-------5-----7-6---------|
D|-5-7-7-----------10\-----|
A|-------------------------|
E|-------------------------|
Suggest correction
Give kudos to tab author, rate the tab!
1 2 3 4 5
comments
print report bad tab
guest
You may want to rate the tab now too:
select rating
Please do not post tabs as comments. Select "correction" instead!