Oops, an error
Loading. Please wait.

Kids Kids Kids Tab

version 2
version 2

Whole song

Interactive

476 views 1 this week
no commentswrite comment
1 2 3 4 5
please rate
add to favorites
launch autoscroll
font size
0
reset
how to read this tab
guitar tuner
Tab Pro tools
  • play this tab
  • loop segment
  • change instrument
  • show fretboard
  • metronome
×
Best way to learn
"Kids Kids Kids"
Autoscroll
slow
fast
+/-
esc
set tempo
stop
Difficulty
Tuning
intermediate
D A D G B E
Intro


----------------------------------------------|
----------------------------------------------|
----------10--------------------10h11p10------|
-----11------11----11------11------------11---|    x4
-9-9----9-------9-----9-9-----9---------------|
----------------------------------------------|
 . .    .       .     . .     .


When the line between truths is as shallow as your breath
When you sigh all we become are echoes of what we once were

-------------------------------------|
-----------------------15-15-15-15---|
-----------------------18-18-18-18---|
-------------------------------------|     x4
-0-0-0-0---0-0-0-0-0-----------------|
-0-0-0-0---0-0-0-0-0-----------------|
 . . . .   . . . . .


What we once were, what we once were,
Like cheap red lipstick and whore house perfume

--------------------------------------------|
---15-15-15-15-14-14-14-14------------------|
---18-18-18-18-17-17-17-17------------------|
--------------------------------------------|     x8
--------------------------------------------|
--------------------------------------------|


Disregard our potential
Cause honey we've vanquished all those fears and replaced them with lust
--------------------------------------------|
--15----14------15---14---------------------|
--18----17------18---17---------------------|
--------------------------------------------|    x4
-----------0-0----------0-0-----------------|
-----------0-0----------0-0-----------------|
           .            . .


Oh just a few more seconds, a few more minutes,
a few more thrusts and our love will be gone honey, it will be gone
----------------------------------------------|
--------7--7--7--7-----7--7--7--7-------------|
--------10-10-10-10----10-10-10-10------------|
-0------------------0-------------------------|     x4
-0------------------0-------------------------|
-0------------------0-------------------------|


Gone, gone, gone, And i will be
-----------------|   ------|
-----------------|   ------|
-----------------|   ------|
-----------------|x8 ------|
---0-0---0-0-0---|   --x\--|
---0-0---0-0-0---|   --x\--|  pickscrape
   . .   . . .


And i will be lost
--------------------------------------------|
------12---12-13-----12------------12-13----|
------15---15-16-----15------------15-16----|
--------------------------------------------|     x4
--0-0----0-------0-0----0-0--0--0-----------|
--0-0----0-------0-0----0-0--0--0-----------|
  . .    .       . .    . .  .  .

----------------------------------------------------------------------------|
----------------------------------------------------------------11/2--------|
----------------9h10-11p10----6h7-8p7-----------------2/11-11/2-----11/2----|
-------------8h9-----------5h6--------------------2/11----------------------|
-0-0-0-0-0-0--------------------------0-0-0-0-0-0--------------0---------0--|
-0-0-0-0-0-0--------------------------0-0-0-0-0-0--------------0---------0--|
 . . . . . .                          . . . . . .              .
comments
We did not receive enough feedback on this tab! Please rate:
print report bad tab
1 2 3 4 5
I want to post or [tab]
guest
You may want to rate the tab now too:
select rating
Please do not post tabs as comments. Select "correction" instead!