Oops, an error
Loading. Please wait.

Kids Kids Kids Tab

version 3
version 3

Whole song

Interactive

129 views 1 this week
no commentswrite comment
1 2 3 4 5
please rate
add to favorites
launch autoscroll
font size
0
reset
how to read this tab
guitar tuner
Tab Pro tools
  • play this tab
  • loop segment
  • change instrument
  • show fretboard
  • metronome
Autoscroll
slow
fast
+/-
esc
set tempo
stop
Artist: Heavy Heavy Low Low
Song: "Kids Kids Kids"
Album: everything’s watched, everyone’s watching

i changed the intro to how i play it and part 1, 2, and 3 from the first tab this is how 
play it and it sounds good

Drop D Tuning: DADGBE

[Intro: 0:00 - 0:12]

----------------------------------------------------------------------|
--------------------------------------------------------[x4]----------|
--------------10-------------------10h11p10---------------------------|
---------11------11---11---11-11------------11------------------------|
-----9-9----9-------9----9------9-------------------------------------|
----------------------------------------------------------------------|


Part I [0:13 - 0:24]
------------------------------------------------------------------|
----------------------------------------------[x3]----------------|
-------------------------8-8-8-8-8-8-8-8--------------------------|
-----0-0-0-0---0-0-0-0---x-x-x-x-x-x-x-x--------------------------|
-----0-0-0-0---0-0-0-0---6-6-6-6-6-6-6-6--------------------------|
-----0-0-0-0---0-0-0-0--------------------------------------------|
PM:  - - - -   - - - -


Part II [0:24 - 0:36]
-|------------------|---------------------------------------------|
-|------------------|----------------------------------------[x8]-|
-|------------------|--8-8-8-8--5-5-5-5--7-7-7-7-7-7-7-7----------|
-|-0-0-0-0--0-0-0-0-|--x-x-x-x--x-x-x-x--x-x-x-x-x-x-x-x----------|
-|-0-0-0-0--0-0-0-0-|--6-6-6-6--3-3-3-3--5-5-5-5-5-5-5-5----------|
-|-0-0-0-0--0-0-0-0-|---------------------------------------------|
PM:- - - -  - - - -


Part III [0:36 - 0:51]
------------------------------------------------------------------|
---------------------------------------[x4]-----------------------|
----7-8-7-7-------7-8-7-7-----------------------------------------|
----x-x-x-x--0-0--x-x-x-x--0--------------------------------------|
----5-6-5-5--0-0--5-6-5-5--0--------------------------------------|
-------------0-0-----------0--------------------------------------|
PM:          -             -


Part IV [0:51 - 1:07]
------------------------------------------------------------------|
-----------------------[X8]---------------------------------------|
-------13-13-13-13------------------------------------------------|
----0---x--x--x--x------------------------------------------------|
----0--15-15-15-15------------------------------------------------|
----0-------------------------------------------------------------|
PM:


Breakdown [1:07 - 1:32]
---|---------------------|------12--------12----------------|------|
---|----------------[x8]-|------15--------15\16--------[x8]-|------|
---|---------------------|----------------------------------|------|
---|-0-0---0-0-0---------|-0-0-----0-0-0--------------------|------|
---|-0-0---0-0-0---------|-0-0-----0-0-0--------------------|------|
---|-0-0---0-0-0---------|-0-0-----0-0-0--------------------|------|
PM:  - -   - - -           - -     - - -


Outro [1:32 - 1:40]
----------------------|---|---------------------------------------|
---------------[x4]---|---|---------------------------------------|
----------------------|---|---------------------------------------|
---0-0-1-0-0-1--------|-0-|---------------------------------------|
---0-0-1-0-0-1--------|-0-|---------------------------------------|
---0-0-1-0-0-1--------|-0-|---------------------------------------|
PM:- - - - - -          -
comments
We did not receive enough feedback on this tab! Please rate:
print report bad tab
1 2 3 4 5
I want to post or [tab]
guest
You may want to rate the tab now too:
select rating
Please do not post tabs as comments. Select "correction" instead!