Oops, an error
Loading. Please wait.

Mall-Nutrition Tab

2,150 views 1 this week
no commentswrite comment
1 2 3 4 5
1 last vote to show rating
add to favorites
launch autoscroll
font size
0
reset
how to read this tab
guitar tuner
Autoscroll
slow
fast
+/-
esc
set tempo
stop
Help us to improve Ultimate-Guitar.com Take our survey!
×
Author
Difficulty
Tuning
intermediate
D A D G B E
"Throw me out this car window.."

e|----------| x4
B|----------|
G|----------|
D|-00~--00~-|
A|-00~--00~-|
D|-00~--00~-|
   ..   ..

slide into bass

e|----------|
B|----------|
G|----------|
D|----------|
A|----------|
D|--12\-----|

"Where I can breathe better.."

e|----------| x4
B|----------|
G|----------|
D|-00~--00~-|
A|-00~--00~-|
D|-00~--00~-|
   ..   ..

e|----------------------------|
B|----------------------------|
G|--------------------5h7-----|
D|----------------5h7-----5h7-|
A|-5-5-8p5p0-7-8--------------|
D|----------------------------|
   . .       

e|--------------------------------|
B|--------------------------------|
G|--------------------5h7---------|
D|----------------5h7---------5h7-|
A|-5-5-8p5p0-7-8---------5h7------|
D|--------------------------------|

e|----------------------------|
B|----------------------------|
G|--------------------5h7-----|
D|----------------5h7-----5h7-|
A|-5-5-8p5p0-7-8--------------|
D|----------------------------|

e|-------------------------------------|
B|-------------------------------------|
G|----------------7s9-9s10-10s12-12s14-|
D|-------------------------------------|
A|-5-5-8p5p0-7-8-----------------------|
D|-------------------------------------|

"This is ill at ease.."

e|------------------------------| x4
B|------------------------------|
G|------------------------------|
D|-7-7-9-7-7-10---7-7-9-7-7-10\-|
A|-5-5-7-5-5-8----5-5-7-5-5-8\--|
D|------------------------------|
   . .   . .      . .   . .

"Oh my god I felt my heart stop.."

e|-----| x4 |-----|
B|-----|    |-----|
G|-----|    |-/9b-|
D|-000-|    |-----|
A|-000-|    |-----|
D|-000-|    |-----|
   ...

e|------------------------------| x4
B|------------------------------|
G|------------------------------|
D|-7-7-9-7-7-10---7-7-9-7-7-10\-|
A|-5-5-7-5-5-8----5-5-7-5-5-8\--|
D|------------------------------|
   . .   . .      . .   . .

"Their eyes are stripping our bodies.."

e|-----------------| x4
B|-----------------|
G|----------4*-----|
D|-01-5*-01----0-3*|
A|-01----01----0---|
D|-01----01----0---|
   ..    ..    .

Then open until drums hit high-hat and snare 4 times

e|----|
B|----|
G|----|
D|-0~-|
A|-0~-|
D|-0~-|

"My stomach's tying itself in knots.."

e|-----------------------|\
B|-----------------------| \
G|-----------------------|  \
D|-0-3h5p3-0-0-0-0-3h5p3-|   \
A|-0-3h5p3-0-0-0-0-3h5p3-|    \
D|-0-3h5p3-0-0-0-0-3h5p3-|     \
                                x2
e|-----------------------|     /
B|-----------------------|    /
G|-----------------------|   /
D|-0-3h5p3-0-0-0-0-6-5-3-|  /
A|-0-3h5p3-0-0-0-0-6-5-3-| /
D|-0-3h5p3-0-0-0-0-6-5-3-|/

And everything else.."

e|-----------------------|\
B|-----------------------| \
G|-----------------------|  \
D|-0-3h5p3-0-0-0-0-3h5p3-|   \
A|-0-3h5p3-0-0-0-0-3h5p3-|    \
D|-0-3h5p3-0-0-0-0-3h5p3-|     \
   . . . . . . . . . . .       x2
e|-----------------------|     /
B|-----------------------|    /
G|-----------------------|   /
D|-0-3h5p3-0-0-0-0-6-5-3-|  /
A|-0-3h5p3-0-0-0-0-6-5-3-| /
D|-0-3h5p3-0-0-0-0-6-5-3-|/
   . . . . . . . . . . .  

The transition into the end

e|-----------------------|
B|-----------------------|
G|-----------------------| 
D|-11-10-8--9-8-6--6-5-3-|
A|-11-10-8--9-8-6--6-5-3-|
D|-11-10-8--9-9-6--6-5-3-|

"There must be something in the water.."

e|---------------------------1s14/-| x4
B|---------------------------------|
G|---------------------------------|
D|-0000000000000000000000000-------|
A|-0000000000000000000000000-------|
D|-0000000000000000000000000-------|

End on open

e|---|
B|---|
G|---|
D|-0-|
A|-0-|
D|-0-|
Suggest correction
Give kudos to tab author, rate the tab!
1 2 3 4 5
comments
print report bad tab
guest
You may want to rate the tab now too:
select rating
Wanna post a correction for this tab? Suggest correction