Oops, an error
Loading. Please wait.

Tell Shannon Her Crafts Are Ready Bass Tab

version 1
version 1

Whole song

Interactive

1,064 views 1 this week
no commentswrite comment
1 2 3 4 5
please rate
add to favorites
launch autoscroll
font size
0
reset
guitar tuner
Autoscroll
slow
fast
+/-
esc
set tempo
stop
Help us to improve Ultimate-Guitar.com Take our survey!
×
Author
Tuning
D A D G B E
----------------------------------------------------------------------------
           Heavy Heavy Low Low - Tell Shannon Her Crafts Are Ready
----------------------------------------------------------------------------
Tuning - DADG
Tabbed by thedude22

G|--------------------------------------|
D|--------------------------------------|
A|-----5--------5--------5--------5-----|
D|--------------------------------------|

G|------------------|        G|-------|
D|------------------| Play   D|-------| Play
A|------------------| 4x     A|-------|  4x
D|–0-0-0-7-8-8-7-7--|        D|–0-0-0-|   

G|----------------------|  G|---|
D|----------------------|  D|---|
A|----------------------|  A|-6-|
D|–0----0----0--0—-0–0--|  D|---|

G|-------------------------|
D|-------------------------|
A|-------5-6-5-------5-6-5-|Play
D|–00000-------00000-------| 4x

G|------------------------------|
D|------------------------------|
A|-2--2--2-2--2--2-2--2--2-2--2-|
D|------------------------------|

G|------------------|       G|---------------|
D|------------------| Play  D|---------------|
A|----5-------5---5-|  3x   A|-----5---1-1-1-|
D|2-2---2-2-2—--2---|       D|-2-2---2-------|

G|------------------|       G|---------------|
D|------------------| Play  D|---------------|
A|----5-------5---5-|  3x   A|-----5---1-1-1-|
D|2-2---2-2-2—--2---|       D|-2-2---2-------|

G|---------------------------------|
D|---------------------------------|
A|–1-1-1-1-1-1-1-1-0-0-0-0-0-------| Play
D|---------------------------0-0-0—|   2x

G|----------------|
D|----------------|
A|----------------|
D|–7--6--5--4--5--|

G|-----------------------------------------------------|
D|-----------------------------------------------------|
A|-----------------------------------------------------|Play
D|–5--4--3--2--4-3-2-1----555-444-333-222-4-3-2-1-0----| 2x


G|---------|
D|---------|
A|---------| Play
D|–0-0-0-0-|  8x

G|-------------------------------------------|
D|-------------------------------------------|
A|-------------------------------------------|
D|–0-0-0-0-0-0----0-0-0-0-0-0----0-0-0-0-0-0-| Play 4x

G|--------------------------------|
D|--------------------------------|
A|--------------------------------|
D|–0-0-0-0-0-0-0-0-0-0-0-0—0------|

G|-------------------------------|
D|-------------------------------|
A|-------------------------------|
D|–0----------0----------0-------| Play 4x

G|------|
D|------|
A|------|
D|-10/0-|
Suggest correction
Give kudos to tab author, rate the tab!
1 2 3 4 5
comments
print report bad tab
guest
You may want to rate the tab now too:
select rating
Wanna post a correction for this tab? Suggest correction