Oops, an error
Loading. Please wait.

Tell Shannon Her Crafts Are Ready Tab

version 1
version 1

Whole song

Interactive

4,978 views 1 this week
9 commentsread comments
1 2 3 4 5
x 8
add to favorites
launch autoscroll
font size
0
reset
how to read this tab
guitar tuner
Autoscroll
slow
fast
+/-
esc
set tempo
stop
Help us to improve Ultimate-Guitar.com Take our survey!
×
Author
Difficulty
Tuning
intermediate
D A D G B E
----------------------------------------------------------------------------
          Heavy Heavy Low Low - Tell Shannon Her Crafts Are Ready
----------------------------------------------------------------------------
Tabbed by:thedude22
Tuning:DADGBE
See below for Guitar 1  and scroll down for Guitar 2

--------------------------------Guitar 1------------------------------------

e|-------------------------|
B|-------------------------|
G|-------------------------| Play
D|----14-13-------12-------| 12x
A|-12-------13-14----14-13-|
E|-------------------------|

e|-------------------------       e|------|
B|-------------------------       B|------|
G|----14-13-------12------- Play  G|------|
D|-12-------13-14----14-13-  3x   D|-12\x-|
A|-------------------------       A|------|
E|-------------------------       D|------|

e|---------------------------------------------------------------------|
B|---------------8---------------8----------------------------11-11-11-|
G|-------9-8-----------------8-9---------9-8-----9-8----------10-10-10-|Play
D|-00000-----8-9---00000-8-9-------00000-----0-0-----0-0-0-0-----------| 2x
A|-00000-----------00000-----------00000-----0-0-----0-0-0-0-----------|
E|-00000-----------00000-----------00000-----0-0-----0-0-0-0-----------|
pm .....           .....           .....     . .     . . . .

e|--------------------       e|------------------|
B|--------------------       B|-12-12-12-12-12\x-|
G|-9-9-12-999-12-9-12- Play  G|------------------|
D|-9-9-12-999-12-9-12-  3x   D|------------------|
A|-7-7-10-777-10-7-10-       A|------------------|
E|--------------------       E|------------------|
pm . .    ...    .

e|-------------------------------------------------------------------------|
B|----------------11-12-------------11-10-------------10-11-10-11-13-13-13-|
G|-9-9-12-999-12-9-----9-12-999-12-9-----9-12-999-12-9---------------------|Pl
D|-9-9-12-999-12-9-----9-12-999-12-9-----9-12-999-12-9---------------------|ay
A|-7-7-10-777-10-7-----7-10-777-10-7-----7-10-777-10-7---------------------|2x
E|-------------------------------------------------------------------------|
pm . .    ...    .     .    ...    .     .    ...    .

e|----------------------------------------------|
B|-11-11-11-11-11-11-11-11-10-10-10-10-10-------|
G|-10-10-10-10-10-10-10-10-9--9--9--9--9--------| Play
D|----------------------------------------0-0-0-|  2x
A|----------------------------------------0-0-0-|
E|----------------------------------------0-0-0-|
pm                                        . . .

e|--------|
B|--------|
G|--------|
D|--------|
A|--------|
E|--15\x--|

e|----------------------------------------------------------|
B|----------------------------------------------------------|
G|----------------------------------------------------------|
D--5--4--3--2--4-3-2--1--5+-555-444-333-222-4-3-2-1--0--3+--| Play
A|-5--4--3--2--4-3-2--1-----555-444-333-222-4-3-2-1--0------|  2x
E|-5--4--3--2--4-3-2--1-----555-444-333-222-4-3-2-1--0------|
pm .  .  .  .  . . .  .     ... ... ... ... . . . .  .

e|-------|
B|-------|
G|-------|
D|----0--|
A|----0--|
E|-10\0--|
pm    .

e|-----------------------------------------------------------------|
B|-----------------------------------------------------------------|
G|-----------------------------------------------------------------|
D|----0-0-0-0-0-0-0-0-0-0-0-0-0-0-0-0-0-0-0-0-0-0-0-0-0-0-0-0-0-0--|
A|----0-0-0-0-0-0-0-0-0-0-0-0-0-0-0-0-0-0-0-0-0-0-0-0-0-0-0-0-0-0--|
E|-10\0-0-0-0-0-0-0-0-0-0-0-0-0-0-0-0-0-0-0-0-0-0-0-0-0-0-0-0-0-0--|
pm    . . . . . . . . . . . . . . . . . . . . . . . . . . . . . .

e|------|
B|------|
G|------|
D|------|
A|------|
E|-10\x-

e|-----------------------------------------|
B|-----------------------------------------|
G|-----------------------------------------|
D|-0-0-0-0-0-0---0-0-0-0-0-0---0-0-0-0-0-0-| Play
A|-0-0-0-0-0-0---0-0-0-0-0-0---0-0-0-0-0-0-| 4x
E|-0-0-0-0-0-0---0-0-0-0-0-0---0-0-0-0-0-0-|
pm . . . . . .   . . . . . .   . . . . . .

e|------------------------------|
B|------------------------------|
G|------------------------------|
D|----0-0-0-0-0-0-0-0-0-0-0-0-0-|
A|----0-0-0-0-0-0-0-0-0-0-0-0-0-|
E|-10\0-0-0-0-0-0-0-0-0-0-0-0-0-|
      . . . . . . . . . . . . .

With Feedback
e|--------------------|
B|--------------------|
G|--------------------|
D|-0-----0-----0------| Play
A|-0-----0-----0------|  4x
E|-0-----0-----0------|
pm .     .     .

Without Feedback
e|------|
B|------|
G|------|
D|----0-|
A|----0-|
E|-10\0-
pm    .


---------------------------------Guitar 2-----------------------------------

e|-------------------------|
B|-------------------------|
G|-------------------------|
D|-12-----12-----12-----12-|
A|-12-----12-----12-----12-|
E|-10-----10-----10-----10-|

e|-----------------|
B|-----------8-----|
G|---9-8-----------| Play
D|-7-----8-9---9-8-|  8x
A|-----------------|
E|-----------------|

e|-----------------------|
B|-----------------------|
G|-----------------------|
D|-0-----0-----0--0--0-0-|
A|-0-----0-----0--0--0-0-|
E|-0-----0-----0--0--0-0-|
pm .     .     .  .  . .

e|-----------------------------------------------------|
B|-----------------------------------------------------|
G|--------------------------------------------15-15-15-|
D|--------------------------------------------14-14-14-| Play
A|-00000--0--00000--0--00000----0-0---0-0-0-0-13-13-13-|  2x
E|-00000--0--00000--0--00000----0-0---0-0-0-0----------|
pm .....  .  .....  .  .....    . .   . . . .

e|------------------------------|
B|------------------------------|
G|------------------------------|
D|------------------------------|
A|------------------------------|
E|-9--9--9-9--9--9-9--9--9-9--9-|
pm .  .  . .  .  . .  .  . .  .

e|---------------------     |
B|---------------------     |
G|-9-9-12-999-12-9-12--Play |
D|-9-9-12-999-12-9-12-- 3x  |
A|-7-7-10-777-10-7-10--     |
E|---------------------     |
pm . .    ...    .          | Play
                            |  2x
e|-------------------       |
B|-------------------       |
G|-9-9-12-9-15-15-15-       |
D|-9-9-12-9-15-15-15-       |
A|-7-7-10-7-13-13-13-       |
E|-------------------       |
pm . .    .                 |

e|---------------------------------|
B|---------------------------------|
G|-7-7-7-7-7-7-7-7-7-7-7-7-7-0-0-0-|Play
D|-7-7-7-7-7-7-7-7-7-7-7-7-7-0-0-0-| 2x
A|-5-5-5-5-5-5-5-5-5-5-5-5-5-0-0-0-|
E|---------------------------------|
pm                           . . .

e|----------------------------------------------------------|
B|----------------------------------------------------------|
G|----------------------------------------------------------|
D--5--4--3--2--4-3-2--1--5+-555-444-333-222-4-3-2-1--0--3+--| Play
A|-5--4--3--2--4-3-2--1-----555-444-333-222-4-3-2-1--0------|  2x
E|-5--4--3--2--4-3-2--1-----555-444-333-222-4-3-2-1--0------|
pm .  .  .  .  . . .  .     ... ... ... ... . . . .  .

e|-----
B|-----
G|-----
D|--0--
A|--0--
E|--0--
pm  .

e|--------------------------------------------------------------|
B|--------------------------------------------------------------|
G|--------------------------------------------------------------|
D|-0-0-0-0-0-0-0-0-0-0-0-0-0-0-0-0-0-0-0-0-0-0-0-0-0-0-0-0-0-0--|
A|-0-0-0-0-0-0-0-0-0-0-0-0-0-0-0-0-0-0-0-0-0-0-0-0-0-0-0-0-0-0--|
E|-0-0-0-0-0-0-0-0-0-0-0-0-0-0-0-0-0-0-0-0-0-0-0-0-0-0-0-0-0-0--|
pm . . . . . . . . . . . . . . . . . . . . . . . . . . . . . .

e|-----------------------------------------|
B|-----------------------------------------|
G|-----------------------------------------|
D|-0-0-0-0-0-0---0-0-0-0-0-0---0-0-0-0-0-0-| Play
A|-0-0-0-0-0-0---0-0-0-0-0-0---0-0-0-0-0-0-| 4x
E|-0-0-0-0-0-0---0-0-0-0-0-0---0-0-0-0-0-0-|
pm . . . . . .   . . . . . .   . . . . . .

e|---------------------------|
B|---------------------------|
G|---------------------------|
D|-0-0-0-0-0-0-0-0-0-0-0-0-0-|
A|-0-0-0-0-0-0-0-0-0-0-0-0-0-|
E|-0-0-0-0-0-0-0-0-0-0-0-0-0-|
pm . . . . . . . . . . . . .

With Feedback
e|--------------------|
B|--------------------|
G|--------------------|
D|-0-----0-----0------| Play
A|-0-----0-----0------|  4x
E|-0-----0-----0------|
pm .     .     .

Without Feedback
e|---
B|---
G|---
D|-0-
A|-0-
E|-0-
pm .


============================================================================
| /  slide up
| \  slide down
| h  hammer-on
| p  pull-off
| ~  vibrato
| +  harmonic
| x  Mute note
============================================================================
Suggest correction
comments
print report bad tab
9 comments total. Showing first comments.
0 reply
Trevor6 20 Aug 07, 2006 01:07 PM

nice tab, hhll if ****ing hxc! could you tab out inhalent abuse? peace.

0 reply
thedude22 206 Aug 10, 2006 03:14 PM

I'll see what I can do...please rate!

0 reply
NumberXx0_0xX12 51 Aug 23, 2006 11:52 AM

Great tab, much better than the one my guitar teacher taught me.

guest
You may want to rate the tab now too:
select rating
Wanna post a correction for this tab? Suggest correction