Oops, an error
Loading. Please wait.

Tell Shannon Her Crafts Are Ready Tab

version 2
version 2

Whole song

Interactive

300 views 1 this week
no commentswrite comment
1 2 3 4 5
please rate
add to favorites
launch autoscroll
font size
0
reset
how to read this tab
guitar tuner
Autoscroll
slow
fast
+/-
esc
set tempo
stop
Help us to improve Ultimate-Guitar.com Take our survey!
×
Difficulty
intermediate
hey, my name is Dino. and i typed out this tab.

song: Tell Shannon Her Crafts Are Ready
band: Heavy Heavy Low Low

Drop D! 

so try it out.

intro:
e|--------------------------------------|
b|--------------------------------------|
G|---8-7-----6--------8-7-----6---------|  (repeat this until high part)
D|-0-----7-8---8-7--0-----7-8---8-7--0--|
A|--------------------------------------|
D|--------------------------------------|

e|-------------------------------------------------------|
b|-------------------------------------------------------|
G|----14-13-------12-----------14-13-------12------------|
D|-12-------13-14----14-13--12-------13-14----14-13--12--|
A|-------------------------------------------------------|
D|-------------------------------------------------------|

e|-----------------------------------|
b|-----------------------------------|
G|-14-13-------12--------------------|
D|-------13-14----14-13--12`````\----|
A|-----------------------------------|
D|-----------------------------------|

e|--------------------------------------|
b|--------------------------------------|
G|---8-7-----6--------8-7-----6---------| (repeat)
D|-0-----7-8---8-7--0-----7-8---8-7--0--|
A|--------------------------------------|
D|--------------------------------------|

e|----------------------------------|
b|----------------------------------|
G|----8----8---8------8----8---8----| (repeat)
D|-0--7----7---7---0--7----7---7----|
A|-0----77---7-----0----77---7------|
D|-0---------------0----------------|
PM *    **   *     *    **   *


e|--------------------------------------|
b|-----12121212121212121111111111111111-| (twice)
G|-----15151515151515151414141414141414-|
D|-000----------------------------------|
A|-000----------------------------------|
D|-000----------------------------------|
PM ***

e|----------------------------------------|
b|----------------------------------------|
G|----------------------------------------|
D|-000~~----------------------------------|
A|-000~~----------------------------------|
D|-000~~----------------------------------|
PM ***

e|------------------------------------------------------------|
b|------------------------------------------------------------|
G|------------------------------------------------------------|
D|-12/5--4--3--2--5-4-3-2-1--5555444433332222-555-4--3--2--1--|
A|-12/5--4--3--2--5-4-3-2-1--5555444433332222-555-4--3--2--1--|
D|-12/5--4--3--2--5-4-3-2-1--5555444433332222-555-4--3--2--1--|
PM    *  *  *  *  * * * * *  **************** *** *  *  *  *

e|------------------------------------------------------------|
b|------------------------------------------------------------|
G|------------------------------------------------------------|
D|-12/5--4--3--2--5-4-3-2-1--5555444433332222-555-4--3--2--1--|
A|-12/5--4--3--2--5-4-3-2-1--5555444433332222-555-4--3--2--1--|
D|-12/5--4--3--2--5-4-3-2-1--5555444433332222-555-4--3--2--1--|
PM    *  *  *  *  * * * * *  **************** *** *  *  *  *

e|---------------------------------|
b|---------------------------------|
G|---------------------------------|
D|-0~------------------------------|
A|-0~------------------------------|
D|-0~------------------------------|
PM *

e|---------------------------------|
b|---------------------------------|
G|---------------------------------|
D|-0-0-0-0-0-0-0-0-0-0-0-0-0-0-0-0-|
A|-0-0-0-0-0-0-0-0-0-0-0-0-0-0-0-0-|
D|-0-0-0-0-0-0-0-0-0-0-0-0-0-0-0-0-|
PM * * * * * * * * * * * * * * * * 

e|--------------------|
b|--------------------| (4 times)
G|--------------------|
D|--0000--0000--0000--|
A|--0000--0000--0000--|
D|--0000--0000--0000--|
PM  ****  ****  ****

e|---------------------------------|
b|---------------------------------|
G|---------------------------------|
D|-0-0-0-0-0-0-0-0-0-0-0-0-0-0-0~--|
A|-0-0-0-0-0-0-0-0-0-0-0-0-0-0-0~--|
D|-0-0-0-0-0-0-0-0-0-0-0-0-0-0-0~--|
PM   * * * *   * * * *   * * * * 

e|--------------------|
b|--------------------| (repeat until end)
G|--------------------|
D|--0000--0000--0000--|
A|--0000--0000--0000--|
D|--0000--0000--0000--|
PM  ****  ****  ****

That's just all one guitar part.
i'm still working out on the second guitar.

hope you enjoy.

-Dino
Suggest correction
Give kudos to tab author, rate the tab!
1 2 3 4 5
comments
print report bad tab
guest
You may want to rate the tab now too:
select rating
Wanna post a correction for this tab? Suggest correction