Oops, an error
Loading. Please wait.

This Is Really Testing The Patience Ive Never Had Tab

584 views 1 this week
no commentswrite comment
1 2 3 4 5
2 more votes to show rating
add to favorites
launch autoscroll
font size
0
reset
how to read this tab
guitar tuner
Autoscroll
slow
fast
+/-
esc
set tempo
stop
Help us to improve Ultimate-Guitar.com Take our survey!
×
Author
Difficulty
Tuning
novice
D A D G B E
[Part I, 0:01]
--|---------------------------------------------|
--|---------------------------------------------|   x2
--|---------------------------------------------|
--|-3333-66-55-2222-33-22-3333--66-55-22222222--|
--|-3333-66-55-2222-33-22-3333--66-55-22222222--|
--|-3333-66-55-2222-33-22-3333--66-55-22222222--|
PM:                                   --------

[Part II, 0:11]
--|-------------------|
--|-------------------|   x4
--|-------------------|
--|-1---2---3---2-----|
--|-1---2---3---2-0-0-|
--|-1-0-2-0-3-0-2-0-0-|
PM:   -   -   -   - -

[Part III - Guitar Freakout, 0:18] You'll have to work this out on your own.

[Part IV, 0:24)
--|---------|
--|---------|   x4
--|---------|
--|---------|
--|---------|
--|----17\x-|
PM:    --


Easy song if you can figure out how to make Part III sound good.
Suggest correction
Give kudos to tab author, rate the tab!
1 2 3 4 5
comments
print report bad tab
guest
You may want to rate the tab now too:
select rating
Wanna post a correction for this tab? Suggest correction