Oops, an error
Loading. Please wait.

A Little Happiness tab

12,136 views 96 this week
no commentswrite comment
1 2 3 4 5
x 8
add to favorites
×
Save as Personal and add changes to this tab that will be seen only by you. Learn more ›
×
You can save this tab as Personal to edit and correct it or add notes. All changes will be seen only by you. Learn more »
launch autoscroll
font size
0
reset
how to read this tab
guitar tuner
edit
Autoscroll
slow
fast
+/-
esc
set tempo
stop
-------------------------------------------------------------------------------
                 小幸運 A Little Happiness - 田馥甄 Hebe Tien
-------------------------------------------------------------------------------

Tabbed by: Prescott
Capo: 5


Tuning: Standard E Tuning

e|--------0------------------------------------------------------------------|
B|---------------------------------------------------------------------------|
G|-----0--------0----------5----------------------------------0--------------|
D|----------------------4--------4----------3-------------0h2-------2--------|
A|--3--------3-------5--------5----------2-------2-----3---------3-----------|
E|------------------------------------3--------3-----------------------------|

e|--------0------------------------------------------------------------------|
B|---------------------------------------------------------------------------|
G|-----0--------0----------5----------------------------------0--------------|
D|----------------------4--------4----------3-------------0h2-------2--------|
A|--3--------3-------5--------5----------2--------2----3---------3------2----|
E|------------------------------------3--------3-----------------------------|

e|---------------------------------------------------------------------------|
B|--------1------------------------------------------------------------------|
G|-------------------------5----------------------------------0--------------|
D|-----2--------2-------4--------4----------3-------------0h2-------2--------|
A|--0--------0-------5--------5----------2--------2----3---------3------2----|
E|------------------------------------3--------3-----------------------------|

e|--------0------------------------------------------------------------------|
B|---------------------------------------------------------------------------|
G|-----0--------0----------5----------------------------------0--------------|
D|----------------------4--------4----------3-------------0h2-------2--------|
A|--3--------3-------5--------5----------2--------2----3---------3------2----|
E|------------------------------------3--------3-----------------------------|

e|---------------------------------------------------------------------------|
B|--------1------------------------------------------------------------------|
G|-------------------------5----------------------------------0--------------|
D|-----2--------2-------4--------4----------3-------------0h2-------2--------|
A|--0--------0-------5--------5----------2--------2----3---------3------2----|
E|------------------------------------3--------3-----------------------------|

e|-----------3--------------------1---------------------------------------------|
B|--------1------1-----1---------------0-----0-----------0---------------------1|
G|-----2------------2-----------0---------0------------------0-----0--------0---|
D|--3-------------------------------------------------2---------2--------2------|
A|---------------------------2---------------------2------------------0---------|
E|------------------------3---------------------0-------------------------------|

e|--------------------1-----------------------2--------------------1-----------2|
B|-----------------3------3-----0h1--------1-----1-----1--------------0-----0--0|
G|--0-----0-----2------------2----------2-----------2-----------0--------0-----0|
D|-----2-----0-----------------------0-----------------------------------------0|
A|-----------------------------------------------------------2-----------------2|
E|--------------------------------------------------------3--------------------3|


Into Chorus (Chords)*

C
G
Am
Em
F
C
D7

G G F G

C
G
Am
Em
F
C
D7

G - One strum and let it ring

C
D7
G7
(let the solo play out)
G - Play one G on the very last note of the solo

Verse 3 (Chords)*

C(x32010)
D
G
C(x32010)
C(x22010)
Am
D7
G7
C(x32010)
C(x22010)
F
G
Em
Am
F6
D7
G

Chorus (Chords)*

C
G
Am
Em
F
C
D7

G G F G

C
G
Am
Em
F
C
D7

G - One strum and let it ring

Outro (Finger Picking)*

e|--------0----------------------------------------------0------------------|
B|-------------------------------------------------------1------------------|
G|-----0--------0----------5----------------------2--4---0------------------|
D|----------------------4--------4----------3-----3--3---2------------------|
A|--3--------3-------5--------5----------2-----2---------3------------------|
E|------------------------------------3-----------3--3----------------------|


************************************

| h  Hammer-on

************************************

            
            
Suggest correction
Creating personal tab
Creating personal tab
You can edit any tab online and save it as your Personal.

You can edit, replace or remove any tab part or add personal notes – all changes will be seen only by you.

Personal tabs can be accessed anytime from any device, even offline.
Learn more »
comments
print report bad tab
guest
You may want to rate the tab now too:
select rating
Wanna post a correction for this tab? Suggest correction