Oops, an error
Loading. Please wait.

A Monument For Eternal Martyrdom tab

1,484 views 1 this week
2 commentsread comments
1 2 3 4 5
x 4
add to favorites
×
Save as Personal and add changes to this tab that will be seen only by you. Learn more ›
×
You can save this tab as Personal to edit and correct it or add notes. All changes will be seen only by you. Learn more »
launch autoscroll
font size
0
reset
how to read this tab
guitar tuner
edit
Autoscroll
slow
fast
+/-
esc
set tempo
stop
H E C A T E    E N T H R O N E D
A MONUMENT FOR ETERNAL MARTYRDOM
from A Slaughter of Innocence,
A Requiem for the Mighty
TAB'd by: Baughb Matcuk
(rkm150@psu.edu)
http://www.personal.psu.edu/rkm150/

Tune down to D (D,G,C,F,A,D), one acoustic guitar plus keyboard.
Exelent song... I am looking for more acoustic black or death
metal songs, if you know of any, lemme know!

D|-----0-------0-------------------------0-------0-----------
A|-------0-------0-------0-----0-----------0-------0-------0-
F|-----------2---------2-----0-----0-----------2---------2---
C|---2---------------3-----2-----------2---------------3-----
G|-0-----------------------------3---0-----------------------
D|-----------------------------------------------------------

--------5-------0-------0-------------------------------------
------0---0-------0-------0-------0-----0-----------0---------
----4-----------------2---------2-----0-----0-----0---0-------
-/5-----------2---------------3-----2-----------4-------4---4-
------------0-----------------------------3---2-----------2---
--------------------------------------------------------------

-------0---------|-----0-----------------0-------------0---------
-----------------|-----0-0-----------0-----0---0---------0-------
-----0---0-------|-----2---2---2---2---2-----2-----2-------2---2-
---5-------5---5-|---2-------2---2---------------3---3-------3---
-3-----------3---|-0---------------------------------------------
-----------------|-----------------------------------------------

---0---5-------------0-----------3-----1---0h1-0-------0---------
---------0-----------0-0-----------------------------0---0-------
-----------0---0-----2---2---2-----2---------------2-------2---2-
-2---2-------2-----2-------2---2-----2---2-------3-----------3---
-----------------0-----------------------------------------------
-----------------------------------------------------------------

               2x
-----------------|---------------------------------------------------
-----0-----0-----|-----2-----2-----2-----2-----2-------1-----1-----1-
---0-----0-----0-|---5-----5-----5-----5-----5-------4-----4-----4---
-----------------|-3-----3-----3-----3-----3-----3-2-----2-----2-----
-3-----2-----3---|---------------------------------------------------
-----------------|---------------------------------------------------

             2x
-------0-------|-------0---------------0---------------0-------------
-----1---1-----|-----5---5-----------5---5-----------4---4-----------
---4-------4---|---8-------8---8---8-------8---8---7-------7---7---7-
-2-----------2-|-6-----------6---6-----------6---5-----------5---5---
---------------|-----------------------------------------------------
---------------|-----------------------------------------------------

           2x
---0---------|-------------------------------------------------------
-4---4-------|---------0---------------0---------------0-------------
-------7---7-|-----5-----5---5-----5-----5---5-----7-----7---7-----7-
---------5---|---7---7-----7-----7---7-----7-----9---9-----9-----9---
-------------|-0---------------0---------------0---------------0-----
-------------|-------------------------------------------------------

---0---------------------------------------------------------------
---------------------0-------------------------------------6-------
-----7---7------9------9----9-12------10------9h10p9---5-----5---5-
-------------10---10-----10------10------10----------3---3-----3---
-0-----0---0------------------------0-------0----------------------
-------------------------------------------------------------------

               2x
-----------------|-------------------------------------------------
-----------------|---------0---------------0---------------0-------
---4---5---7---5-|-----5-----5---5---4---4---4---4---7---7---7---7-
-5---5---5---5---|---7---7-----7---6---6-------6---5---5-------5---
-----------------|-0-----------------------------------------------
-----------------|-------------------------------------------------

               2x
-----------------|---------0---------------0---------------0-------
---------0-------|-------------------------------------------------
---6---6---6---6-|-----5-----5---5---4---4---4---4---7---7---7---7-
-4---4-------4---|---7---7-----7---6---6-------6---5---5-------5---
-----------------|-0-----------------------------------------------
-----------------|-------------------------------------------------

               2x
---------0-------|
-----------------|
---6---6---6---6-|
-4---4-------4---|
-----------------|
-----------------|

Guitar might possibly end on open low D string, it's hard to tell,
but that's definitely the note the keyboard is playing.
Suggest correction
Creating personal tab
Creating personal tab
You can edit any tab online and save it as your Personal.

You can edit, replace or remove any tab part or add personal notes – all changes will be seen only by you.

Personal tabs can be accessed anytime from any device, even offline.
Learn more »
comments
print report bad tab
2 comments total.
0 reply
IlDementis 31 Oct 15, 2009 10:01 PM

Very nice, just one thing; 6th measure from the top goes like this
(the top note is higher)
|-------7---------------7---------------6----------------6---------|
|-----5---5-----------5---5-----------4---4------------4---4-------|
|---8-------8---8---8-------8---8---7-------7---7---7--------7---7-|
|-6-----------6---6-----------6---5-----------5---5------------5---|
|------------------------------------------------------------------|
|------------------------------------------------------------------|

0 reply
Kote Kutalia 518 Oct 30, 2016 11:11 AM

Thanks for the tab. It seems perfect with the aforementioned correction. https://www.youtube.com/watch?v=Q71A5hPk2mM Here's another great acoustic song you've asked.

guest
Wanna post a correction for this tab? Suggest correction