Oops, an error
Loading. Please wait.

The Spell Of The Winter Forest tab

16 views 1 this week
no commentswrite comment
1 2 3 4 5
3 more votes to show rating
add to favorites
×
Save as Personal and add changes to this tab that will be seen only by you. Learn more ›
×
You can save this tab as Personal to edit and correct it or add notes. All changes will be seen only by you. Learn more »
launch autoscroll
font size
0
reset
how to read this tab
guitar tuner
edit
Autoscroll
slow
fast
+/-
esc
set tempo
stop
The Spell Of The Winter Forest
Album: The Slaughter Of Innocence, A Requiem For The Mighty
1997 Blackend Records


tabbed by Hellspawn (infernal_throne@hotmail.com)


Legend:

h       = hammer-on                b/     =  bend half a step
p       = pull-off
t       = tap                        )
pm...   = palm mute                b/     =  bend one whole step
"       = tremolo picking
          (or 32th note)           b/\    =  bend half a step and release
/       = slide up
\       = slide down                 )
~       = vibrato                  b/ \   =  bend one whole step and release
x\\\\   = pick slide
4/4     = time signature           b      =  bend without picking
( )     = tie note                 B      =  bend with picking
x       = muffled note             /\/\/\ =  wide vibrato
ah      = artificial harmonic
s       = short note

D|----|            |-----|
A|----| play       |-----| play
F|-*/-| previous   |-*//-| previous
C|-/*-| bar        |-//*-| two bars
G|----|            |-----|
D|----|            |-----|


Timing: 4/4: ----   = 1 beat
       12/8: ------ = 1 beat
             |_3_|  = triplet

Gtr 1 = Left speaker
Gtr 2 = Right speaker

Tune Down 1 whole step  (6:D 5:G 4:C 3:F 2:A 1:D)

  Clean tone
 12/8
D|--------------------------|--------------------------|-------------------------|
A|--------------------------|--------------------------|-------------------------|
F|o-9-----9-----9-----9-----|-9-----9-----10-----9-----|-4-----4-----4-----2-----|
C|o---7-----7-----7-----7---|---7-----7------7-----7---|---2-----2-----2-----2---|
G|------0-----0-----0-----0-|-----0-----0------0-----0-|-----0-----0-----0-----0-|
D|--------------------------|--------------------------|-------------------------|

D|-------------------------|-------------------------|--------------------------|
A|-------------------0-----|-------------------------|----------------3---0---3-|
F|-5-----5-----5-------5/--|-9-----9-----9-----9-----|-10-----9-----5---2-4-5---|
C|---3-----3-----3---------|---7-----7-----7-----7---|----7-----7---------------|
G|-----0-----0-----0-------|-----0-----0-----0-----0-|------0-----0-------------|
D|-------------------------|-------------------------|--------------------------|

   __________________________________________________   ________________________
  |1.                                                | |2.
D|-------0-----------0-----|-------0-----------3------|-------0-----------0-----|
A|---------6-----6---6-6---|---3-----3-----------0----|---------6-----6-----6---|
F|-5---------5-----------5-|-----2-----2---2-------0-o|-5---------5-----------5-|
C|-3-----------3---3-------|-0--(0)------3---3-------o|-3-----------3---3-------|
G|-------------------------|--------------------------|-------------------------|
D|-------------------------|--------------------------|-------------------------|
_________________________
                         |  Acoustic Riff

D|-------0-----------3-----||-------------------------|----|-------------------------|
A|---------3-----------0---||-------------------------|----|-------------------------|
F|---2-2-----2---2-------0-||-----9-----9-----9-----9-|-*/-|-----4-----4-----4-----4-|
C|-0---0-------3---3-------||---7-----7-----7-----7---|-/*-|---2-----2-----2-----2---|
G|-------------------------||-0-----0-----0-----0-----|----|-0-----0-----0-----0-----|
D|-------------------------||-------------------------|----|-------------------------|


D|-------------------------|-------------------------|-------------------------|
A|-----------------------0-|-------------------------|-----------------------3-|
F|-----5-----5-----5-----4-|-----9-----9-----9-----9-|-----9-----9-----9---5---|
C|---3-----3-----3-----3---|---7-----7-----7-----7---|---7-----7-----7---0-----|
G|-0-----0-----0-----0-----|-0-----0-----0-----0-----|-0-----0-----0-----------|
D|-------------------------|-------------------------|-------------------------|

                                  (end Acoustic Riff)  (Both Gtrs) w/ Acoustic Riff
D|-------0-----------0-----|-------0-----------3-----||-------------------------|
A|---6-----6-----6-----6---|-----3---3-----------0---||-------------------------|
F|-----5-----5-----5-----5-|---2-------2---2-------0-||-9-----------------------|
C|-3-----------3-----------|-0-----------3---3-------||-7-----------------------|
G|-------------------------|-------------------------||-------------------------|
D|-------------------------|-------------------------||-------------------------|


D|-------------------------|-------------------------|--------------------------|
A|-------------------------|-------------------------|--------------------------|
F|-(9)---------------------|-------------------------|--------------------------|
C|-(7)---------------------|-9-----------------9\7/9-|-10-----------------------|
G|-------------------------|-7-----------------7\5/7-|-10-----------------------|
D|-------------------------|-7-----------------7\5/7-|-8------------------------|


D|-------------------------|-------------------------|--------------------------|
A|-------------------------|-------------------------|--------------------------|
F|-9-----------------------|-(9)---------7-----7-----|-10-----------------------|
C|-7-----------------------|-(7)---------7-----5-----|-10-----------------------|
G|-7-----------------------|-(7)---------5-----5-----|-8------------------------|
D|-------------------------|-------------------------|--------------------------|


D|--------------------------|-------------------------|-------------------------|
A|--------------------------|-------------------------|-------------------------|
F|-7-----7-----10-----------|-------------------------|-------------------------|
C|-7-----7-----10-----------|-7-----------------------|-(7)---------------------|
G|-5-----5-----8------------|-7-----------------------|-(7)---------------------|
D|--------------------------|-5-----------------------|-(5)---------------------|
|
 |                           Acoustic Riff 1
D|--------------------------|-------0-----------------|-------------------------|
A|--------------------------|-----0---0-------0-8-----|-------6-------0---8-----|
F|--------------------------|---5-----------5-----5---|---7-----7-----------5---|
C|--------------------------|-7---------7-----------7-|(7)--7-----7-----7-----7-|
G|--------------------------|-------------7-----------|-------------7-----------|
D|--------------------------|-------------------------|-------------------------|

                                                      (Gtr 2) w/ Acoustic Riff 1
D|-------------------------|-------------------------|-------------------------|
A|-------------------------|-------------------------|-------------------------|
F|-------------------------|-------------------------|-------------------------|
C|\6-----------------------|-(6)---------------------|-7-----------------------|
G|-------------------------|-------------------------|-7-----------------------|
D|\4-----------------------|-(4)---------------------|-5-----------------------|
|                                                                             |
|                                                                             |

D|-------0-----------0-----|-------0-----------------|-------------------------|
A|-----0---0-------0---0---|-----0---0-------0-----0-|-------------------------|
F|---5-------5---5-------5-|---5-------5-------------|-------------------------|
C|-6-----------6-----------|-6-------------6---6-----|-------------------------|
G|-------------------------|-------------7-------6---|-------------------------|
D|-------------------------|-------------------------|-------------------------|


D|-------------------------|-------------------------|-------------------------|
A|-------------------------|-------------------------|-------------------------|
F|-------------------------|-------------------------|-------------------------|
C|-(7)---------------------|\6-----------------------|-(6)---------------------|
G|-(7)---------------------|-------------------------|-------------------------|
D|-(5)---------------------|\4-----------------------|-(4)---------------------|

  (Both Gtrs) w/ Acoustic Riff 1
D|--------------------------|--------|-------------------------|---------|
A|--------------------------|--------|-------------------------|---------|
F|o-------------------------|---*/---|-------------------------|---*/---o|
C|o-7-7-7-7-7-7-7-7-7-7-7-7-|---/*---|-6-6-6-6-6-6-6-6-6-6-6-6-|---/*---o|
G|--7-7-7-7-7-7-7-7-7-7-7-7-|--------|-6-6-6-6-6-6-6-6-6-6-6-6-|---------|
D|--5-5-5-5-5-5-5-5-5-5-5-5-|--------|-4-4-4-4-4-4-4-4-4-4-4-4-|---------|


D|--------------------------|-------------------------|-------------------------|
A|--------------------------|-------------------------|-------------------------|
F|o-------------------------|-------------------------|-------------------------|
C|o-------------------------|-10"---9"----7"----9"----|-------999999999999999999|
G|--7"----------------------|-8-"---7"----5"----7"----|-6"----------------------|
D|--5"----------------------|-------------------------|-4"----------------------|


D|-------------------------|-------------------------|-------------------------|
A|-------------------------|-------------------------|-------------------------|
F|-------------------------|-------------------------|-------------------------|
C|-10""""10""""10""""999999|-------------------------|-10"---9"----7"----9"----|
G|-------------------------|-7"----------------------|-8-"---7"----5"----7"----|
D|-------------------------|-5"----------------------|-------------------------|


D|-------------------------|----------------------------|--------------------------|
A|-------------------------|----------------------------|--------------------------|
F|-------------------------|---------------------------o|--------------------------|
C|-------------------------|---------------------------o|--------------------------|
G|-6-----------------------|-10"----------------9/10\9--|-10"----------------------|
D|-4-----------------------|-8-"----------------7/8-\7--|-8-"----------------------|

 Faster
 4/4
  (Gtr 1)
D|-----------------|--------|-----------------|-----------------|-----------------|
A|-----------------|--------|-----------------|-----------------|-----------------|
F|-----------------|---*/---|-----------------|-----------------|-----------------|
C|-----------------|---/*---|-3333333333333333|-5555555555555555|-2---------------|
G|-0000000000000000|--------|-----------------|-----------------|-0---------------|
D|-----------------|--------|-----------------|-----------------|-s---------------|

                     Riff A                                            (end Riff A)
D|-----------------||------------------|------|-----------------|------------------|
A|-----------------||------------------|------|-----------------|------------------|
F|-----rest(3)-----||o-----------------|--*/--|-----------------|-----------------o|
C|-----------------||o-----------------|--/*--|-----------------|-----------------o|
G|-----------------||------------------|------|-----------------|--------------h---|
D|-----------------||--5555555555555555|------|-1111111111111111|-3333333333331-3--|

  Riff A1 (Gtr 1) w/ Riff A 2 times                (end Riff A1)
D|------------------|------|-----------------|------------------|
A|------------------|------|-----------------|------------------|
F|o-----------------|--*/--|-----------------|--------------h--o|
C|o-----------------|--/*--|-3333333333333333|-5555555555553-5-o|
G|--0000000000000000|------|-----------------|------------------|
D|------------------|------|-----------------|------------------|

play Riff A 2 times

   (Gtr 1)                 play 3 times
D|------------------|------------------||-----------------|-----------------|
A|------------------|------------------||-----------------|-----------------|
F|o-10"-------------|-9"------10"-12"-o||-12"-------------|-10"-----9"--10"-|
C|o-0-"-------------|-0"------0-"-0-"-o||-8-"-------------|-7-"-----7"--7-"-|
G|------------------|------------------||-----------------|-----------------|
D|------------------|------------------||-----------------|-----------------|
|                                                                          |
| (Gtr 2)                                                                  |

D|------------------|------------------||-----------------|-----------------|
A|------------------|------------------||-----------------|-----------------|
F|o-10"-------------|-9"------10"-12"-o||-12"-------------|-10"-----9"------|
C|o-0-"-------------|-0"------0-"-0-"-o||-8-"-------------|-7-"-----7"------|
G|------------------|------------------||-----------------|-----------------|
D|------------------|------------------||-----------------|-----------------|


D|-------------------|-----------------|-----|-----|-----------------|------------------|
A|-------------------|-----------------|-----|-----|-----------------|------------------|
F|-10"-------9"10"12"|-9"------10"-12"-|-*//-|-*//-|-12"-------------|-10"-----9"---10"-|
C|-0-"-------0"0-"0-"|-0"------0-"-0-"-|-//*-|-//*-|-8-"-------------|-7-"-----7"---7-"-|
G|-------------------|-----------------|-----|-----|-----------------|------------------|
D|-------------------|-----------------|-----|-----|-----------------|------------------|
|                                                                                      |
| Riff B                                                                               |

D|-------------------|-----------------|-----|-----|-----------------|------------------|
A|-------------------|-----------------|-----|-----|-----------------|------------------|
F|-10"-------9"10"12"|-9"------10"-12"-|-*//-|-*//-|-12"-------------|-10"-----9"10"9"--|
C|-0-"-------0"0-"0-"|-0"------0-"-0-"-|-//*-|-//*-|-8-"-------------|-7-"-----7"7-"7"--|
G|-------------------|-----------------|-----|-----|-----------------|------------------|
D|-------------------|-----------------|-----|-----|-----------------|------------------|

  (Gtr 1) w/ Riff B
D|-------------------|-----------------|-----|-----|-----------------|-----------------|
A|-------------------|-----------------|-----|-----|-----------------|-----------------|
F|-10"-------9"10"12"|-9"------10"-12"-|-*//-|-*//-|-14"-----15"-----|-12"-----10"-----|
C|-0-"-------0"0-"0-"|-0"------0-"-0-"-|-//*-|-//*-|-0-"-----0-"-----|-0-"-----0-"-----|
G|-------------------|-----------------|-----|-----|-----------------|-----------------|
D|-------------------|-----------------|-----|-----|-----------------|-----------------|

   (Gtr 1)
D|------------------|-----------------|-----------------|-----------------|
A|------------------|-----------------|-----------------|-----------------|
F|o-----------------|-------*/--------|-------*/--------|-------*/--------|
C|o-----------------|-------/*--------|-------/*--------|-------/*--------|
G|--5555555555555555|-----------------|-----------------|-----------------|
D|------------------|-----------------|-----------------|-----------------|
|                                                                        |
| (Gtr 2)                                                                |

D|------------------|-----------------|-----------------|-----------------|
A|------------------|-----------------|-----------------|-----------------|
F|o-14""14""15""15""|-12""12""14""14""|-9999999910""10""|---------77777777|
C|o-----------------|-----------------|-----------------|-10""10""--------|
G|------------------|-----------------|-----------------|-----------------|
D|------------------|-----------------|-----------------|-----------------|
                    ____________________________________________________
                   |1.                                                  |

D|-----------------|-----------------|-----------------|------------------|
A|-----------------|-----------------|-----------------|------------------|
F|-----------------|-------*/--------|-10""10""10""10""|-------*/--------o|
C|-8888888888888888|-------/*--------|-----------------|-------/*--------o|
G|-----------------|-----------------|-----------------|------------------|
D|-----------------|-----------------|-----------------|------------------|
|                                                                        |
|                                                                        |

D|-----------------|-----------------|-----------------|------------------|
A|-----------------|-----------------|-----------------|------------------|
F|-7777777777777777|-7777777777779999|-10""10""10""10""|-------*/--------o|
C|-----------------|-----------------|-----------------|-------/*--------o|
G|-----------------|-----------------|-----------------|------------------|
D|-----------------|-----------------|-----------------|------------------|
  ___________________________________________________
 |2.                                                 |

D|-----------------|-----------------|-----------------|-----------------|----|-----|
A|-----------------|-----------------|-----------------|-----------------|----|-----|
F|-----------------|-10""10""10""10""|-------*/--------|-------*/--------|-*/-|-*//-|
C|-8888888888888888|-----------------|-------/*--------|-------/*--------|-/*-|-//*-|
G|-----------------|-----------------|-----------------|-----------------|----|-----|
D|-----------------|-----------------|-----------------|-----------------|----|-----|
|                                                                                  |
|                                                                                  |

D|-----------------|-----------------|-----------------|-----------------|----|-----|
A|-----------------|-----------------|-----------------|-----------------|----|-----|
F|-7777777777777777|-------*/--------|-7777777777779999|-10""10""10""10""|-*/-|-*//-|
C|-----------------|-------/*--------|-----------------|-----------------|-/*-|-//*-|
G|-----------------|-----------------|-----------------|-----------------|----|-----|
D|-----------------|-----------------|-----------------|-----------------|----|-----|

   Riff C
D|-----------------|------|------|-----------------|-----------------|------|------|
A|-----------------|------|------|-----------------|-----------------|------|------|
F|-10"-------------|--*/--|--*/--|-------*/--------|-9"--------------|--*/--|--*/--|
C|-7-"-------------|--/*--|--/*--|-------/*--------|-7"--------------|--/*--|--/*--|
G|-----------------|------|------|-----------------|-----------------|------|------|
D|-----------------|------|------|-----------------|-----------------|------|------|
|                                                                                 |
| Riff C1                                                                         |

D|-----------------|------|------|-----------------|-----------------|------|------|
A|-----------------|------|------|-----------------|-----------------|------|------|
F|-10""10""10""10""|--*/--|--*/--|-10""10""999910""|-9999999999999999|--*/--|--*/--|
C|-----------------|--/*--|--/*--|-----------------|-----------------|--/*--|--/*--|
G|-----------------|------|------|-----------------|-----------------|------|------|
D|-----------------|------|------|-----------------|-----------------|------|------|

       (end Riff C)
D|-----------------||-----------------|------|-----------------|-----------------|
A|-----------------||-----------------|------|-----------------|-----------------|
F|-9"--------------||-----------------|--*/--|-------*/--------|-------*/--------|
C|-7"--------------||-8888888888888888|--/*--|-------/*--------|-------/*--------|
G|-----------------||-----------------|------|-----------------|-----------------|
D|-----------------||-----------------|------|-----------------|-----------------|
|                                                                               |
|    (end Riff C1)                                                              |

D|-----------------||-----------------|------|-----------------|-----------------|
A|-----------------||-----------------|------|-----------------|-----------------|
F|-9999999910""9999||-7777777777777777|--*/--|-7777777777779999|-10""999977779999|
C|-----------------||-----------------|--/*--|-----------------|-----------------|
G|-----------------||-----------------|------|-----------------|-----------------|
D|-----------------||-----------------|------|-----------------|-----------------|


D|-----------------|-----------------|-----------------|--------|
A|-----------------|-----------------|-----------------|--------|
F|-----------------|---------99999999|-10""10""10""10""|---*/---|
C|-8888888888888888|-88888888--------|-----------------|---/*---|
G|-----------------|-----------------|-----------------|--------|
D|-----------------|-----------------|-----------------|--------|
|                                                              |
|                                                              |

D|-----------------|-----------------|-----------------|--------|
A|-----------------|-----------------|-----------------|--------|
F|-10""10""10""10""|-------*/--------|-10""10""10""10""|---*/---|
C|-----------------|-------/*--------|-----------------|---/*---|
G|-----------------|-----------------|-----------------|--------|
D|-----------------|-----------------|-----------------|--------|

play Riff C & C1

 Slower
D|-----------------|-----------------|-----------------|-----------------|
A|-----------------|-----------------|-----------------|-----------------|
F|-7---------------|-(7)-------------|-(7)-------------|-(7)-------------|
C|-8---------------|-(8)-------------|-(8)-------------|-(8)-------------|
G|-8---------------|-(8)-------------|-(8)-------------|-(8)-------------|
D|-6---------------|-(6)-------------|-(6)-------------|-(6)-------------|


D|-----------------|-----------------|-----------------|-----------------|
A|-----------------|-----------------|-----------------|-----------------|
F|-----------------|-----------------|-----------------|-----------------|
C|-7---------------|-(7)-----------7-|-7---------------|-(7)-------------|
G|-7---------------|-(7)-----------7-|-7---------------|-(7)-------------|
D|-5---------------|-(5)-----------5-|-5---------------|-(5)-------------|


D|-----------------|-----------------|-----------------|-----------------|
A|-----------------|-----------------|-----------------|-----------------|
F|-----------------|-----------------|-----------------|-----------------|
C|-8---------------|-(8)-------------|-(8)-------------|-(8)-------------|
G|-8---------------|-(8)-------------|-(8)-------------|-(8)-------------|
D|-6---------------|-(6)-------------|-(6)-------------|-(6)-------------|


D|-----------------|-----------------|-----------------|-----------------|
A|-----------------|-----------------|-----------------|-----------------|
F|-----------------|-----------------|-----------------|-----------------|
C|-8---------------|-(8)-----------8-|-7---------------|-(7)-------------|
G|-8---------------|-(8)-----------8-|-7---------------|-(7)-------------|
D|-6---------------|-(6)-----------6-|-5---------------|-(5)-------------|


D|------------------|--------|---------|-----------------|--------|----------|
A|------------------|--------|---------|-----------------|--------|----------|
F|o-----------------|---*/---|---*//---|-----------------|---*/---|---*//---o|
C|o-8888888888888888|---/*---|---//*---|-7777777777777777|---/*---|---//*---o|
G|--8888888888888888|--------|---------|-7777777777777777|--------|----------|
D|--6666666666666666|--------|---------|-5555555555555555|--------|----------|

  Slower
D|-----------------|-----------------|-----------------|-----------------|
A|-----------------|-----------------|-----------------|-----------------|
F|-----------------|-----------------|-----------------|-----------------|
C|-8---------------|-(8)-------------|-(8)-------------|-(8)-------------|
G|-8---------------|-(8)-------------|-(8)-------------|-(8)-------------|
D|-6---------------|-(6)-------------|-(6)-------------|-(6)-------------|
|                                                                       |
| Acoustic Riff 2 (Clean Gtr 2)                                         |

D|-----------------|-----------------|-----------------|-----------------|
A|-----------------|-----------------|-----------------|-----------------|
F|-----3-------3---|-------*/--------|-------*/--------|-------*/--------|
C|---3---3---3---3-|-------/*--------|-------/*--------|-------/*--------|
G|-1-------1-------|-----------------|-----------------|-----------------|
D|-----------------|-----------------|-----------------|-----------------|

  (Gtrs 1 & 2 out)                               (Clean Gtr 1)
                                                  w/ Acoustic Riff 2 (2.75 times)
D|-----------------|----|-----------------|----||------------------------|----|-----|
A|-----------------|----|-----------------|----||-------11---------11----|----|-----|
F|-----3-------3---|-*/-|-----2-------2---|-*/-||o---10----10---10----10-|-*/-|-*//-|
C|---3---3---3---3-|-/*-|---2---2---2---2-|-/*-||o-8----------8----------|-/*-|-//*-|
G|-0-------0-------|----|-0-------0-------|----||------------------------|----|-----|
D|-----------------|----|-----------------|----||------------------------|----|-----|
                                   ___________________________
                                  |1.2.                       |

D|-----------------------|--------|-------------------|---------|
A|-----------------------|--------|-----10-------10---|---------|
F|-----10-------10-------|---*/---|---9----9---9----9-|---*/---o|
C|---7----7---7----7---7-|---/*---|-7--------7--------|---/*---o|
G|-0--------0--------0---|--------|-------------------|---------|
D|-----------------------|--------|-------------------|---------|

   ___________________________________
  |3. (Clean Gtr 1)                   |
D|-------------------|-----------------|
A|-----10-------10---|-----------------|
F|---9----9---9----9-|-------*/--------|
C|-7--------7--------|-------/*--------|
G|-------------------|-----------------|
D|-------------------|-----------------|
|                                     |
|    (Clean Gtr 2)                    |

D|-------------------|-----------------|
A|-------------------|-----------------|
F|-----2--------2----|-------*/--------|
C|---2----2---2----2-|-------/*--------|
G|-0--------0--------|-----------------|
D|-------------------|-----------------|
|                                     |
|    (Gtrs 1 & 2)                     |

D|-------------------|-----------------|
A|-------------------|-----------------|
F|-------------------|-----------------|
C|-------rest--------|-7-7-7-7-7-7-7-7-|
G|-------------------|-7-7-7-7-7-7-7-7-|
D|-------------------|-5-5-5-5-5-5-5-5-|

  Riff D
D|-----------------|-----------------|-----------------|-----------------|
A|-----------------|-----------------|-----------------|-----------------|
F|-----------------|-----------------|-----------------|-----------------|
C|-8---8---8---8---|-8---8---8---8---|-8---8---8---8---|-8---8---8---8---|
G|-8---8---8---8---|-8---8---8---8---|-8---8---8---8---|-8---8---8---8---|
D|-6---6---6---6---|-6---6---6---6---|-6---6---6---6---|-6---6---6---6---|
|                                                                       |
| (Gtr 3)                                                               |

D|-----------------|-----------------|-----------------|-----------------|
A|-----------------|-----------------|-----------------|-----------------|
F|-----------------|--------/10"-----|-10"-------------|-------*/--------|
C|-----------------|-----------------|-----------------|-------/*--------|
G|-----------------|-----------------|-----------------|-----------------|
D|-----------------|-----------------|-----------------|-----------------|

                                                             (end Riff D)
D|-----------------|-----------------|-----------------|-----------------|
A|-----------------|-----------------|-----------------|-----------------|
F|-----------------|-----------------|-----------------|-----------------|
C|-7---7---7---7---|-7---7---7-7---7-|-7---7---7---7---|-7---7---7---7---|
G|-7---7---7---7---|-7---7---7-7---7-|-7---7---7---7---|-7---7---7---7---|
D|-5---5---5---5---|-5---5---5-5---5-|-5---5---5---5---|-5---5---5---5---|
|                                                                       |
|                                                                       |

D|-----------------|-----------------|-----------------|-----------------|
A|-----------------|-----------------|-----------------|-----------------|
F|-10"-------------|-------*/--------|-9"--------------|-------*/--------|
C|-----------------|-------/*--------|-----------------|-------/*--------|
G|-----------------|-----------------|-----------------|-----------------|
D|-----------------|-----------------|-----------------|-----------------|

  (Gtr 3) w/ Riff D
D|-----------------|-----------------|-----------------|-----------------|
A|-----------------|-----------------|-----------------|-----------------|
F|-10"-------------|-14"---12"---10"-|-10"-------------|-14"---12"---10"-|
C|-----------------|-----------------|-----------------|-----------------|
G|-----------------|-----------------|-----------------|-----------------|
D|-----------------|-----------------|-----------------|-----------------|


D|-----------------|------------------|-----------------|-----------------|
A|-----------------|------------------|-----------------|-----------------|
F|-10"-------------|-5"----7"----9"10"|-9"--------------|-9"------10"-9"--|
C|-----------------|------------------|-----------------|-----------------|
G|-----------------|------------------|-----------------|-----------------|
D|-----------------|------------------|-----------------|-----------------|

  Hold until fade out
D|-----------------|
A|-----------------|
F|-----------------|
C|-8---------------|
G|-8---------------|
D|-6---------------|

            
            
Suggest correction
Creating personal tab
Creating personal tab
You can edit any tab online and save it as your Personal.

You can edit, replace or remove any tab part or add personal notes – all changes will be seen only by you.

Personal tabs can be accessed anytime from any device, even offline.
Learn more »
Give kudos to tab author, rate the tab!
1 2 3 4 5
comments
print report bad tab
guest
You may want to rate the tab now too:
select rating
Wanna post a correction for this tab? Suggest correction